Rancid - Fall Back Down Chords & Tabs

 

Fall Back Down Chords & Tabs

Rancid Chords & Tabs

Version: 3 Type: Tab 0 ratings
1 star 2 stars 3 stars 4 stars 5 stars
comments

Fall Back Down Tab

Artist: Rancid
Song: Fall Back Down
Tuning: Standard

This is the way me and my friends play it. Take your time playing it too.
Need any help or comments contact me AIM: ozzman3388


Intro
1|---0------1------1-----0-------|
2|---1------3------1-----1-------|
3|---0------2------2-----0-------|
4|---2------0------3-----2-------|
5|---3------0------3-----3-------|
6|-----------------1-----0-------|

Verse
1|---0----0----1-----1-----1-----1-----0-----0---0----0----1----1----2----2-
2|---1----1----3-----3-----1-----1-----1-----1---1----1----3----3----2----2-
3|---0----0----2-----2-----2-----2-----0-----0---0----0----2----2----2----2-
4|---2----2----0-----0-----3-----3-----2-----2---2----2----0----0----4----4-
5|---3----3----0-----0-----3-----3-----3-----3---3----3----0----0----4----4-
6|-------------------------1-----1-----0-----0-----------------------2----2-

Verse Continued
1|---1---1---3----------------3---|
2|---1---1---0----------------0---|
3|---2---2---0---2---2---4----0---|
4|---3---3---0---2---2---4----0---|
5|---3---3---2---0---0---2----2---|
6|---1---1---3----------------3---|

Chorus
1|---------------------------------------|
2|---------------------------------------|
3|-------------------------------2-------|
4|---5---7-----------5---2---4---2---2---|
5|---3---5-------3---3---2---4---0---2---|
6|-----------0---1-------0---2-------0---|

Bridge
1|------------------------------------------3----------------|
2|---2---------------9----------------------3----------------|
3|---2-----------6---9----------------------4---2---4---2----|
4|---2---5-------6---9----------------------5---3---4---2----|
5|---0---3---3---4---7---0-0---5--5-5--5-5--5---3---2---0----|
6|-----------1-----------------3--3-3--5-3--3---1------------|

Interlude
1|--0-0-0-0---1--1---0---0-0-0-0--1--1--3-3-3-3---1-1-1--3-3-3-3--1-1-1-1---
2|--1-1-1-1---3--3---1---1-1-1-1--3--3--5-5-5-5---3-3-3--5-5-5-5--3-3-3-3---
3|--------------------------------------------------------------------------
4|--------------------------------------------------------------------------
5|--------------------------------------------------------------------------
6|--------------------------------------------------------------------------

Continued...
1|-0--0--0--0-----5-5--3-3--1-1--3--1--1--0-0---5-5-5--3-3--1-1--1--0-0-0-0-
2|----1--1--1--0--6-6--5-5--3-3--5--3--3--1-1---6-6-6--5-5--3-3--3--1-1-1-1-
3|--------------------------------------------------------------------------
4|--------------------------------------------------------------------------
5|--------------------------------------------------------------------------
6|--------------------------------------------------------------------------
[ Tab from: http://www.guitartabs.cc/tabs/r/rancid/fall_back_down_tab_ver_3.html ]
1|-0-0-0-0--1-1---3-3-3-3-3--1--1--1----1--0--0-0---0--------|
2|-1-1-1-1--3-3---5-5-5-5-5--3--3--3----3-----1-1---1--------|
3|-----------------------------------------------------------|
4|-----------------------------------------------------------|
5|-----------------------------------------------------------|
6|-----------------------------------------------------------| Interlude end...


Verse 2
1|--0--0--1--1-----------------1--1--0--0----------------------1--3-----|
2|--1--1--3--3-----------------1--1--1--1----------------------1--3-----|
3|--0--0--2--2-----------------2--2--0--0---2--2--1--1---------2--4-----|
4|--2--2--0--0----2--2--4--4---3--3--2--2---2--2--2--2--5-7-7--3--5-----|
5|--3--3--0--0----2--2--4--4---3--3--3--3---0--0--2--2--3-5-5--3--5-----|
6|----------------0--0--2--2---1--1---------------0--0---------1--3-----|

Solo
1|--------------------------------------------------------------------------
2|--------------------------------------------------------------------------
3|--------------------------------------------------------------------------
4|--------------------------------------------------------------------------
5|--------------------------------------------------------------------------
6|--8--7--8--7--8--10--8-8--7--8--10-8-8-8--8-7---7-7-7-7-7--5-5-5--8-7-8-7-


Outro
1|--3-3-3-3-3-3--1-1-1-1-1-1-1-1-1-1--0-0-0-0-0-0-0--8-8-8-8--1-1-----|
2|--5-5-5-5-5-5--3-3-3-3-3-3-3-3-3-3--1-1-1-1-1-1-1--5-5-5-5--3-3--5--|
3|--------------------------------------------------------------------|
4|--------------------------------------------------------------------|
5|--------------------------------------------------------------------|
6|--------------------------------------------------------------------|

Continued..
1|-3-3-3-3-3-3-3--1-1-1-1-1-1-1-1-1-1--0-0-0-0-0-0--0-0-0--3-3-3--1-1-1-1-0-
2|-5-5-5-5-5-5-5--3-3-3-3-3-3-3-3-3-3--1-1-1-1-0-1--1-1-1--5-5-5--3-3-3-3-1-
3|--------------------------------------------------------------------------
4|--------------------------------------------------------------------------
5|--------------------------------------------------------------------------
6|--------------------------------------------------------------------------

Continued.....
1|-1-1-1-1-1--0-0--1-1--3-3--1-1-1-1--1--0-0--3-3-3-0--1-1-1-1-1---0-0------
2|-3-3-3-3-3--1-1--3-3--5-5--3-3-3-3--3--1-1--1-1-1-1--3-3-3-3-3---1-1------
3|--------------------------------------------------------------------------
4|--------------------------------------------------------------------------
5|--------------------------------------------------------------------------
6|--------------------------------------------------------------------------

Continued.........
1|-1-1-1-1-1-1-1--3--1-1-1-1-1-1-0-0--3-3--0-0-0-----0----------------
2|-3-3-3-3-3-3-3--5--3-3-3-3-3-3-1-1--1-1--1-1-1--0--1----------------
3|------------------------------------------------------------2-----1-
4|---------------------------------------------------5--2--4--2--2--2-
5|---------------------------------------------------3--2--4--0--2--2-
6|------------------------------------------------------0--2-----0--0-



Formation:
Intro
Verse
Chorus
Bridge
Interlude
Verse2
Solo
Chorus
Outro
Comments