Rancid - Fall Back Down Chords & Tabs

 

Fall Back Down Chords & Tabs

Rancid Chords & Tabs

Version: 2 Type: Tab 0 ratings
1 star 2 stars 3 stars 4 stars 5 stars
comments

Fall Back Down Tab

   
Band:  Rancid
Song:  Fall Back Down
Album: Indestructible

Tabbed by: Matt L. - ilikepunkrock26@yahoo.com

Tuning: Standard E

This is a pretty simple song except for the little solo things.


Intro/Verse A:
---7-----9-----5-----7--------------------------------------------
---9-----10----5-----9--------------------------------------------
---9-----11----6-----9--------------------------------------------
---9-----11----7-----9--------------------------------------------
---7-----9-----7-----7--------------------------------------------
---------------5--------------------------------------------------
   E     f#Min A     E
	
Bridge Chord: B Major
--------7--------
--------7--------
--------8--------
--------9--------
--------9--------
--------7--------


Chorus:
------------------------------------------------------------------
------------------------------------------------------------------
---9---11---------------------------------------------------------
---9---11--7------------------------------------------------------
---7---9---7------------------------------------------------------
-----------5------------------------------------------------------
[Same as verse but played in power chords]


Verse B:
---9-----7-----7-----5--------------------------------------------
---9-----9-----7-----5--------------------------------------------
---9-----9-----8-----6--------------------------------------------
---11----9-----9-----7--------------------------------------------
---11----7-----9-----7--------------------------------------------
---9-----------7-----5--------------------------------------------
   C#Min E     B     A

Solo 1: (Play Verse A On Rythym Guitar)
Note: These are the chords, not the rythym.
It's not that hard to figure out though.
------------------------------------------------------------------
--9-10-9-10-9-10-9---9-10-12-10-12-10-9---------------------------
--9-11-9-11-9-11-9---9-11-13-11-13-11-9---------------------------
------------------------------------------------------------------
------------------------------------------------------------------
------------------------------------------------------------------
[ Tab from: http://www.guitartabs.cc/tabs/r/rancid/fall_back_down_tab_ver_2.html ]
------------------------------------------------------------------
--14-12-10-12-10-9---14-12-10-9---9-10-9-10-12-10-9---------------
--14-13-11-13-11-9---14-13-11-9---9-11-9-11-13-11-9---------------
------------------------------------------------------------------
------------------------------------------------------------------
------------------------------------------------------------------

Verse 2:
---7-----9-----5-----7--------------------------------------------
---9-----10----5-----9--------------------------------------------
---9-----11----6-----9--------------------------------------------
---9-----11----7-----9--------------------------------------------
---7-----9-----7-----7--------------------------------------------
---------------5--------------------------------------------------
   E     f#Min A     E

Chorus:
------------------------------------------------------------------
------------------------------------------------------------------
---9---11---------------------------------------------------------
---9---11--7------------------------------------------------------
---7---9---7------------------------------------------------------
-----------5------------------------------------------------------

Solo 2: (Play Verse B On Rythym Guitar)
Note: Play Twice.
------------------------------------------------------------------
------------------------------------------------------------------
------------------------------------------------------------------
------------------------------------------------------------------
---7p6-7p6-7-/9\7-6-7-/9\7---7-7\6-6---6-6\4----------------------
------------------------------------------------------------------


Chorus:
------------------------------------------------------------------
------------------------------------------------------------------
---9---11---------------------------------------------------------
---9---11--7------------------------------------------------------
---7---9---7------------------------------------------------------
-----------5------------------------------------------------------


Solo 3: (Play Verse A On Rythym Guitar)
Note: These are the chords, not the rythym.
------------------------------------------------------------------
---12-10-9--12-10-9--10-9-10-9-10-12-10-9--10-9-10-13-10-9-10-9---
---13-11-9--13-11-9--11-9-11-9-11-13-11-9--11-9-11-12-11-9-11-9---
------------------------------------------------------------------
------------------------------------------------------------------
------------------------------------------------------------------
Comments