Rancid - Fall Back Down Chords & Tabs

 

Fall Back Down Chords & Tabs

Rancid Chords & Tabs

Version: 5 Type: Bass Tab 0 ratings
1 star 2 stars 3 stars 4 stars 5 stars
comments

Fall Back Down Bass Tab

-Intro-
G|-------------------------------|
D|-----2---2~-3--4~-----------2~-|(x2)
A|-2-4---4---------------0~------|
E|-------------------------------|

-Verse 1-
G|--------------------------------------------------------------------------|
D|---2---2-22222-222222-4444444-444-442------------------2-222222-22222-----|
A|-4---4-------------------------------4-0-00000-000-0-24---------------424-|
E|--------------------------------------------------------------------------|

G|----------------------------------------------2344-442-22-22--22224-442-221-11----|
D|2-22222-222-2234444-444-4444442-----------------------------------------------444-|
A|-------------------------------4-0-00000-00000------------------------------------|
E|----------------------------------------------------------------------------------|

-Chorus-                                    
G|-----------------------------------|    
D|-2-222-3-44444444---------222-2----|    
A|------------------0-00000------424-|    
E|-----------------------------------|    
                                          
G|-----------------------------------|
D|-2-222-3-44444444---------222-2-2--|
A|------------------0-00000------4-4-|
E|-----------------------------------|

G|-----------------------------------|
D|-2-222-3-44444444---------222-2----|
A|------------------0-00000------424-|     
E|-----------------------------------|

G|-----------------------------------|
D|-2-222-3-44444444---------222-2----|
A|------------------0-00000------023-|
E|-----------------------------------|

-Bridge-
G|-------------------------------123-4444444-44444-332244664422-------|
D|------------------2222222-22222------------------------------4422---|
A|-4444444-44444444------------------------------------------------42-| (x2)
E|--------------------------------------------------------------------|

-Interlude-
G|-----------------------------------|
D|-2-222-3-44444444---------222-2-2--|
A|------------------0-00000------4-4-| (x4)
E|-----------------------------------|
[ Tab from: http://www.guitartabs.cc/tabs/r/rancid/fall_back_down_btab_ver_5.html ]
-Verse 2-
G|--------------------------------------------------------------------------|
D|---2---2-22222-222222-4444444-444-442------------------2-222222-22222-----|
A|-4---4-------------------------------4-0-00000-000-0-24---------------424-|
E|--------------------------------------------------------------------------|

G|----------------------------------------------2344-442-22-22--22224-442-221-11----|
D|2-22222-222-2234444-444-4444442-----------------------------------------------444-|
A|-------------------------------4-0-00000-00000------------------------------------|
E|----------------------------------------------------------------------------------|

-Chorus-                                    
G|-----------------------------------|    
D|-2-222-3-44444444---------222-2----|    
A|------------------0-00000------424-|    
E|-----------------------------------|    
                                          
G|-----------------------------------|
D|-2-222-3-44444444---------222-2-2--|
A|------------------0-00000------4-4-|
E|-----------------------------------|

G|-----------------------------------|
D|-2-222-3-44444444---------222-2----|
A|------------------0-00000------424-|     
E|-----------------------------------|

G|-----------------------------------|
D|-2-222-3-44444444---------222-2----|
A|------------------0-00000------023-|
E|-----------------------------------|

-Guitar Solo-
G|-----------------------------------|
D|-2-222-3-44444444---------222-2-2--|
A|------------------0-00000------4-4-| (x2)
E|-----------------------------------|

-Break-
G|--------------------------------------------------|
D|-22-44----22-22--2--2-22223444444--------222-2----|
A|-------00------24-4---------------000000------424-|
E|--------------------------------------------------|

G|-------------------242/64242----|
D|-2-2223444444----24---------42--|
A|--------------024-------------4-|
E|--------------------------------|

-Outro-
G|-----------------------------------|
D|-2-222-3-44444444---------222-2-2--|
A|------------------0-00000------4-4-| (x3)
E|-----------------------------------|

G|------------64242-2-------------|
D|-22223444444-----4-42-242----2~-|
A|---------------------4---424----|
E|--------------------------------|
Comments