Rancid - Fall Back Down Chords & Tabs

 

Fall Back Down Chords & Tabs

Rancid Chords & Tabs

Version: 3 Type: Bass Tab 0 ratings
1 star 2 stars 3 stars 4 stars 5 stars
comments

Fall Back Down Bass Tab

This is a good Rancid Song and its a kinda challenging intro. For this song,
the bassist for Rancid uses a pick as usual, so you can use your fingers, but
I recomend a pick for this song.

* = Hammer on

Intro
------------------------------
------2*1*2---3--4------2-----
--0-2---------------0---------
------------------------------


Verse 
--------------------------------------------------------
-----2*1*2222222244444444444444------------22222222-----
--0*2--------------------------000000000000-------------
--------------------------------------------------------

Pre Chorus
---4444222211112222444422221111-------
-------------------------------4444---
--------------------------------------
--------------------------------------

[ Tab from: http://www.guitartabs.cc/tabs/r/rancid/fall_back_down_btab_ver_3.html ]
Chorus
-------------------------------------------------------
----22222222222344444444444444-------------22222222222--
-----------------------------0000000000000-------------
-------------------------------------------------------

Pre 1st Solo
-------------------------------4444444444444422446611------
----------------222222222222222----------------------4444--
---4444444444444-------------------------------------------
-----------------------------------------------------------

1st Solo= Repeat Verse 

2nd Solo- Repeat Pre 1st Solo

2nd Chorus
-------------------------
--22---44------22--------
-----------00------------
-------------------------

For the rest of the song just play Verse !
If i screw this up a little im sorry and dont kill me!
Comments