Rancid - Fall Back Down Chords & Tabs

 

Fall Back Down Chords & Tabs

Rancid Chords & Tabs

Version: 2 Type: Bass Tab 0 ratings
1 star 2 stars 3 stars 4 stars 5 stars
comments

Fall Back Down Bass Tab

#----------------------------------PLEASE NOTE---------------------------------#
#This file is the author's own work and represents their interpretation of the #
#song. You may only use this file for private study, scholarship, or research. #
#------------------------------------------------------------------------------#

Song: Fall back down
Artists: Rancid
Album: Indestructible

Intro
G--------------------------------
D-----2-----2----3--4---------2--
A--24---4----------------0-------
E--------------------------------

Verse
G-------------------------------------------------------------------
D--2-2-2-2-2-2-2-2-2-2-2-2-2-2-2-3-3-4-4-4-4-4-4-4-4-4-4-4-4-4-4-4--
A-------------------------------------------------------------------
E-------------------------------------------------------------------

G-----------------------------------------------------------------*
D-----------------------------------2-2-2-2-2-2-2-2-2-2-2-2--2-2--*
A--0-0-0-0-0-0-0-0-0-0-0-0-0-0-0-0--------------------------2-2---*
E-----------------------------------------------------------------*

Verse (end)
G-*----1-2-4-44--2-22--1-11--2-22--4-44--2-22--1-11--------
D-*--4-----------------------------------------------4-44--
A-*--------------------------------------------------------
E-*--------------------------------------------------------

Chorus
G---------------------------------------------------------------------- x3
D--2-2-2-2-2-2-2-3-3-4-4-4-4-4-4-4-------------------2-2-2-2-2-2--2-2--
A-----------------------------------0-0-0-0-0-0-0-0--------------2-2---
E----------------------------------------------------------------------
[ Tab from: http://www.guitartabs.cc/tabs/r/rancid/fall_back_down_btab_ver_2.html ]
G----------------------------------------------------2-2-2-2-2-2-2------
D--2-2-2-2-2-2-2-3-3-4-4-4-4-4-4-4----------------------------------02--
A-----------------------------------0-0-0-0-0-0-0-0---------------------
E-----------------------------------------------------------------------

Post-Chorus
G---------------------------------------------------------------------
D---------------------------------------------------------------67-9--
A--4-4-4-4-4-4-4-4-4-4-4-4-4-4-4-4--7-7-7-7-7-7-7-7-7-7-7-7-7-7-------
E---------------------------------------------------------------------

G------------------------------------6---------------
D--9-9-9-9-9-9-9-9-9-9-9-9-9-9-9--7-----9--7---------
A---------------------------------------------9-7-4--
E----------------------------------------------------

Solo
G--------------------------------------------------------------------------
D--2-2-2-2-2-2-2-3-3-4-4-4-4-4-4-4-------------------2-2-2-2-2-2----2---2--
A-----------------------------------0-0-0-0-0-0-0-0--------------24---4----
E--------------------------------------------------------------------------

Bridge
G--------------------------------
D--2-2-----4-4--------------2----
A------------------0-0---24---4--
E--------------------------------

Outro1
G-----------------------------------------------------------------------
D--2-2-2-2-2-2-2-3-3-4-4-4-4-4-4-4-------------------2-2-2-2-2-2---2-2--
A-----------------------------------0-0-0-0-0-0-0-0---------------2-2---
E-----------------------------------------------------------------------

G---------------------------------------------------6----------------
D--2-2-2-2-2-2-2-3-3-4-4-4-4-4-4-4--------------7-9---9-7------------
A-----------------------------------0-0-0-0-7-9-----------9-7-----0--
E-------------------------------------------------------------9-7----

Outro2
G-----------------------------------6----------------------------------
D--2-2-2-2-2-2-2-3-3-4-4-4-4-4-4-4----9-7-9-7---7----------------------
A---------------------------------------------9---9-7-9-----7-------7--
E-------------------------------------------------------7-9---9-7-9----

Have fun!!!

email: mc_call@email.it



















Comments