Rancid - Endrina Chords & Tabs

 

Endrina Chords & Tabs

Rancid Chords & Tabs

Version: 1 Type: Tab 0 ratings
1 star 2 stars 3 stars 4 stars 5 stars
comments

Endrina Tab

   
ENDRINE by RANCID
tabbed by Geof Andersen (sempromianus@aol.com)


INTRO
CHORUS X2
VERSE X2 palm muted
CHORUS X1
SOLO X1
CHORUS X2

Thats the whole song during the solo lars plays the verse only not palu 
muted.

INTRO this is played kinda sloppy  x1

E-----------------------------------------------------------------
B-----------------------------------------------------------------
G---1-2h-1-0-0-----1-2h-1-0-0---0---0-1-2h-1-0-0------------------
D---0----0-0-0-----0----0-0-0-2---2---0----0-0-0------------------
A-----------------------------------------------------------------
E-----------------------------------------------------------------

CHORUS   x2
E-----------------------------------------------------------------
B-----------------------------------------------------------------
G-55-44-22--------------------------------------------------------
D-55-44-22-44/55555555--------------------------------------------
A-33-22-00-44/55555555--------------------------------------------
E----------22/33333333--------------------------------------------
[ Tab from: http://www.guitartabs.cc/tabs/r/rancid/endrina_tab.html ]
VRESE   x2
E-------------------------------------------------------------------
B-------------------------------------------------------------------
G------------5-(555555)------------------------5-(555555)-----------
D-5-(555555)-5-(555555)-5-(555555)-5-(555555)-5-(555555)-5-(555555)-
A-5-(555555)-3-(333333)-5-(555555)-5-(555555)-5-(555555)-5-(555555)-
E-3-(333333)------PM----3-(333333)-3-(333333)------PM----3-(333333)-
       PM                    PM          PM                    PM
CHORUS   x1
E-----------------------------------------------------------------
B-----------------------------------------------------------------
G-55-44-22--------------------------------------------------------
D-55-44-22-44/55555555--------------------------------------------
A-33-22-00-44/55555555--------------------------------------------
E----------22/33333333--------------------------------------------

E-----------------------------------------------------------------
B-----------------------------------------------------------------
G-4-------4-------------------------------------------------------
D-4-------4-------------------------------------------------------
A-2-------2-------------------------------------------------------   
E-----------------------------------------------------------------

SOLO played with an extra overdrive by tim x1

E-----------------------------------------------------------------
B-----------------------------------------------------------------
G------------------------------------------7-4--------------7-4---
D-9-7-5-7-5---5-h7-7-5--5-7-9-7-5---5--5-7-----7-5----5-5-7-----7-
A-----------7---------------------7-----------------7-------------   
E-----------------------------------------------------------------


CHORUS   x2
E-----------------------------------------------------------------
B-----------------------------------------------------------------
G-55-44-22--------------------------------------------------------
D-55-44-22-44/55555555--------------------------------------------
A-33-22-00-44/55555555--------------------------------------------
E----------22/33333333--------------------------------------------
Comments