Rancid - Do You Want To Dance With Me Chords & Tabs

 

Do You Want To Dance With Me Chords & Tabs

Rancid Chords & Tabs

Version: 2 Type: Bass Tab 0 ratings
1 star 2 stars 3 stars 4 stars 5 stars
comments

Do You Want To Dance With Me Bass Tab

Rancid
"Do You Want to Dance With Me"
By: Alec(misfit809@Hotmail.com)

Intro and Pro- Chorus:
[ Tab from: http://www.guitartabs.cc/tabs/r/rancid/do_you_want_to_dance_with_me_btab_ver_2.html ]
G:-----------------------------------|
D:---------4-----------------2-0-----|
A:-5-5-5-5---5-5-5-4-2-2-2-2-----2-0-|
E:-----------------------------------|
                                      end of intro
G:----------------------------------|-------|
D:----------------------------------|-------|
A:---------2-0-------------7-7-5----|-------|
E:-3-3-3-3-----3-2-5-5-5-5-------7-5|-5>-3-5|

Verse Part 1:

G:-------------------------------------|
D:-------------------------------------|
A:-4-4-4-4-4-----------4-4-4-4-4----3-4|
E:-----------2-2-2-2-2-----------2-2---|

Verse Part 2:

G:-------------------------------|
D:------2-3-2----4-3-4-3-4-3-----|
A:--4-6------6-4-------------6-4-|
E:-6-----------------------------|

Chorus:
  x4
G:---------------|
D:---3-6-3-4-----|
A:-4---------6-4-|
E:---------------|
Comments