Rancid - Disgruntled Chords & Tabs

 

Disgruntled Chords & Tabs

Rancid Chords & Tabs

Version: 2 Type: Bass Tab 0 ratings
1 star 2 stars 3 stars 4 stars 5 stars
comments

Disgruntled Bass Tab

Rancid
"Disgruntled"
Album: Rancid (2000)
By: Joe (joemamabudz@aol.com)

Verse:

G:-----------------------|
D:-7-8---7-8---7-8---7-8-|
A:-----8-----8-----8----8|
E:-----------------------|

Chorus:
 do twice
G:------------------------------|
D:---5-8-5---10-9-10-9-10-9-10-9|
A:-7----------------------------|
E:------------------------------|


==================================
      Version2
==================================
[ Tab from: http://www.guitartabs.cc/tabs/r/rancid/disgruntled_btab_ver_2.html ]
Song:  DISGRUNTLED
Band:  RANCID
Album:  RANCID  2000
Tabbed By:  DAN HAVOC, BASSIST FOR THE NEUTRALS

VERSE

G:---------------
D:---------------
A:---0>--8>----
E:----------------

CHORUS/BRIDGE

G:---------------------------------------------------------      
D:-----------------5-5-5-5-5-8-8-8-8-8-5-5-5-5-5--      
A:---7-7-7-7-7------------------------------------------      
E:---------------------------------------------------------      

G:---5---5-5---4---4-4---
D:---------------------------       x4
A:----------------------------
E:----------------------------




Comments