Rancid - Dead Bodies Chords & Tabs

 

Dead Bodies Chords & Tabs

Rancid Chords & Tabs

Version: 1 Type: Tab 0 ratings
1 star 2 stars 3 stars 4 stars 5 stars
comments

Dead Bodies Tab

                     intro 
G-----2--------------------------------------------       title:Dead bodies
D-0-4---4-2-------2-----------------00000000-------       Artist:Rancid
A-----------4-0-4---4-2-0-1111--------------------- x2    Tab by: Thunda boi
E------------------------------3333----------------
This is the bass line but it sound the same on guitar 
          Verse 
E------------------------------
B------------------------------
C------------------------------
G-77---------------------------
D-77-77-33-5555---------------- x8
A-55-77-33-5555----------------
E----55-11-3333----------------
pm.. .. .. .... 
                chorus
E-----------------------------------------------
B-----------------------------------------------
C-----------------------------------------------x2
G-77777-------3333------77777777----------------
D-77777-77777-3333-5555-77777777----------------
A-55555-77777-1111-5555-55555555----------------
E-------55555------3333------------------------- 


it does throught the whole song hope you like it
[ Tab from: http://www.guitartabs.cc/tabs/r/rancid/dead_bodies_tab.html ]
Comments