Rancid - Crane Fist Chords & Tabs

 

Crane Fist Chords & Tabs

Rancid Chords & Tabs

Version: 4 Type: Bass Tab 0 ratings
1 star 2 stars 3 stars 4 stars 5 stars
comments

Crane Fist Bass Tab

Rancid
Crane Fist
Life Won't Wait

Im not going to put the whole order as theres only
3 parts to this song and its pretty obvious when they
change:

Main Riff
G------------------------2-----
D------2-4--4-2------2-4---4-2-
A-3--3----------3--3-----------
E------------------------------
[ Tab from: http://www.guitartabs.cc/tabs/r/rancid/crane_fist_btab_ver_4.html ]
Other Part
G-----------------------------
D--5-5-555-5--3-3333333-------
A-----------------------------
E-----------------------------

Other Other Part          
G----------      ----------
D-----5555-      -----2222-
A-3-3------      -0-0------
E---------- x4   ---------- x4

Mr Barbecue
Comments