Rancid - Corruption Chords & Tabs

 

Corruption Chords & Tabs

Rancid Chords & Tabs

Version: 1 Type: Bass Tab 0 ratings
1 star 2 stars 3 stars 4 stars 5 stars
comments

Corruption Bass Tab

Song:      Corruption
Album:     rancid 2000
Tabbed by: BassD
				x=muted
				>=play a couple of time
				/=slide to
Intro(play fast)
G|-----------------------------------------------|
D|-----------------------------------------------|
A|-4>--------------4>----------------------------|
E|----4-0-3-0-2-0>----4-0-3-0-2-0>---------------|

Verse x2
G|-------------------------------------|
D|-------------------------------------|
A|---------4>-3>----------4>-3>--------|
E|-4>-5/2>--------4>-5/2>--------------|

This part is weird,I play it with a mute,but listen to the song for timing
G|------------------------------------------------|
D|------------------------------------------------|
A|-4>/8-x-6--6-6-7>---4>/8-x-6--6-6-7>------------|
E|------------------------------------------------|

(Verse x2)
[ Tab from: http://www.guitartabs.cc/tabs/r/rancid/corruption_btab.html ]
G|------------------------------------------|
D|------------------------------------------|
A|-4>-5>-6>-----4>-5>-6>--------------------|
E|----------0>-----------0>-----------------|

(verse x2)

G|----------------------------------------------|
D|----------------------------------------------|
A|-4>---------------4>--------------------------|
E|----4-0-3-0-2-0>-----4-0-3-0-2-0>-------------|

G|------------------------------------------------------|
D|------------------------------------------------------|
A|-4>/8-x-6--6-6-7>--4>/8-x-6--6-6-7>-------------------|
E|------------------------------------------------------|

G|--------------------------------------------|
D|--------------------------------------------|
A|-4>-5>-6>-----4>-5>-6>----------------------|
E|----------0>-----------0--------------------|

Email me if you have questions!=rancid_ska@hotmail.com

===============================================================================

Comments