Rancid - Cocktails Chords & Tabs

 

Cocktails Chords & Tabs

Rancid Chords & Tabs

Version: 1 Type: Bass Tab 0 ratings
1 star 2 stars 3 stars 4 stars 5 stars
comments

Cocktails Bass Tab

Song: Cocktails
Band: Rancid
Album: Life Won't Wait
Tabbed By: Alec(misfit809@Hotmail.com)
[ Tab from: http://www.guitartabs.cc/tabs/r/rancid/cocktails_btab.html ]
1st 1/2 of Verse:
G:----------------------------------
D:---------0h2p0--------------------
A:-------2------------3--2-0--------
E:--3--3---------5--5--------3------
Cont:
G:----------------------------------
D:-------2-p0----------2-p0---------
A:--3--3------2p0-----------2p0-----
E:----------------3--3--------------
2nd 1/2 of Verse/Chorus:
G:----------------------------------
D:---------0h2p0--------------------
A:-------2------------3--2-0--------
E:--3--3---------5--5--------3------
Cont:
G:----------------------------------
D:-------2-p0-2-3-5555-3-2----------
A:--3--3-------------------5--------
E:----------------------------------
Pre-Chorus:
G:----------------------------------
D:--------------2-3-5555-3-2--------
A:----2-3-2-3-5----------------2-3--
E:--5------------------------5------
Other Part:
G:----------------------------------
D:-----------------------5555-3-2---
A:--3-3-3-3--5-5-5-5--------------5-
E:-------------------3-3------------

Comments