Rancid - Brad Logan Chords & Tabs

 

Brad Logan Chords & Tabs

Rancid Chords & Tabs

Version: 2 Type: Tab 0 ratings
1 star 2 stars 3 stars 4 stars 5 stars
comments

Brad Logan Tab

rancid
brad logan
 intro

legend
.= palm mute
e|--------------------------------------------------------|
B|--------------------------------------------------------|
G|--5555555-----------------------------------------------|
D|--5555555-3333333-7777777-5555555-----------------------|  x2
A|--3333333-3333333-7777777-5555555-----------------------|
E|----------1111111-5555555-3333333-----------------------|
     .. ..   .. ..   .. ..   .. ..

chrous
e--------------------------|
b--------------------------|
g--5-5---------------------|
d--5-5---3-3---7-7---5-5---|  x2
a--3-3---3-3---7-7---5-5---|
e--------1-1---5-5---3-3---|

Verse:

e|-------------------------------------------------------------------------|
B|-------------------------------------------------------------------------|
G|-------------------------------------------------------2-1-0-------------|
D|--------------------------------------1-2-3-4-3-2-----------3-2-1-0------|
A|----0-1-3-3-1-0-0-0-----3-3-3--------------------------------------3-----|
E|-1-----------------------------------------------------------------------|
[ Tab from: http://www.guitartabs.cc/tabs/r/rancid/brad_logan_tab_ver_2.html ]
e|---------------------------------------------------------------|
B|---------------------------------------------------------------|
G|--0------------------------------------------------------------|
D|-----3-2-1-0---------------------------------------------------|
A|----------------3-2--------------------------------------------|
E|---------------------------------------------------------------|

chrous x4

verse x1

chrous  x4

Solo
e|-----------------------------------------------------------------------|
B|-----------------------------------------------------------------------|
G|-----------------------------------------------------------------------|
D|---------------------------------------------------1-1-1-1-0-1-0-------|
A|-------0-0-3-3-0---0-------------------0-0-0----------------------3----|
E|--3-3-------------------3-3-3--------3---------------------------------|

e|-----------------------------------------------------------------------|
B|-----------------------------------------------------------------------|
G|-----------------------------------------------------------------------|
D|--------------------0--------------------------------------------------|
A|--3--------0-0-0----3--------------------------------------------------|
E|----3-3-3--------------------------------------------------------------|

verse

chrous x2

intro: not palm muted x1

tabbed by: aaron marquet  email: azzman_123@hotmail.com

please rate
Comments