Rancid - Brad Logan Chords & Tabs

 

Brad Logan Chords & Tabs

Rancid Chords & Tabs

Version: 1 Type: Bass Tab 0 ratings
1 star 2 stars 3 stars 4 stars 5 stars
comments

Brad Logan Bass Tab

Brad Logan
by Rancid
from Chef Aid
tabbed by Alec(misfit809@Hotmail.com)


verse
G|------------------------|
D|------------------------|
A|--33----------------33--|
E|--------22----22--------|

chorus("cali sun has sunk")
G|----------------------|
D|----------------------|
A|--3>------0>------3>--|
E|------1>------3>------|
[ Tab from: http://www.guitartabs.cc/tabs/r/rancid/brad_logan_btab.html ]
bridge
G|--------------------------------------2--1--0----------------0---------------------|
D|-------------------------1-2-3--4-3-2----------4--3--2--1--0---4--3--2--1--0-------|
A|----0-1-3--3-1-0-00--3-3------------------------------------------------------4-3--|
E|--1--------------------------------------------------------------------------------|

listen to the song for the beat timing and other stuff.

Comments