Rancid - Black Lung Chords & Tabs

 

Black Lung Chords & Tabs

Rancid Chords & Tabs

Version: 5 Type: Tab 0 ratings
1 star 2 stars 3 stars 4 stars 5 stars
comments

Black Lung Tab

-------------------------------------------------------------------------------
			     Black Lung- Rancid
-------------------------------------------------------------------------------
Tabbed by:E_liear
Email:E_liear@hotmail.com

Tuning:normal

It's my first tab.  
This is a great song!  Pretty simple, but good.
Have Fun!  

Intro

e|---------------------------------------------------------------------------|
B|---------------------------------------------------------------------------|
G|-5-3-5-7-5-3-5-5-3-3-5-----------------------------------------------------|
D|---------------------------------------------------------------------------|     
A|---------------------------------------------------------------------------|
E|---------------------------------------------------------------------------|

Verse

e|--8------------------------------------------------------------------------|
B|---------6-----------------------------------------------------------------|
G|-----------------------5---------------------------------------------------|      
D|---------------------------------------------------------------------------|  
A|---------------------------------------------------------------------------|
E|---------------------------------------------------------------------------|

Chorus
[ Tab from: http://www.guitartabs.cc/tabs/r/rancid/black_lung_tab_ver_5.html ]
e|---------------------------------------------------------------------------|
B|---------------------------------------------------------------------------|
G|---------3333333-6666666---------------------------------------------------|
D|-3333333-3333333-6666666-6666666------X2-----------------------------------|   
A|-3333333-1111111-4444444-6666666-------------------------------------------|
E|-1111111-----------------4444444-------------------------------------------|

e|---------------------------------------------------------------------------|
B|---------------------------------------------------------------------------|
G|-33333333-66666666---------------------------------------------------------|
D|-33333333-66666666---------------------------------------------------------|
A|-11111111-44444444---------------------------------------------------------|
E|---------------------------------------------------------------------------|
 
Thing after second chorus

e|---------------------------------------------------------------------------|
B|---------------------------------------------------------------------------|
G|----8----------------------------------------------------------------------|
D|-99-8----------------------------------------------------------------------|   
A|-99-6----------------------------------------------------------------------|
E|-77------------------------------------------------------------------------|

Outro

e|---------------------------------------------------------------------------|
B|---------------------------------------------------------------------------|
G|----- 5-5-----5------------------------------------------------------------|
D|--6-5-5-5-6-5-5------------------------------------------------------------|
A|--6-5-3-3-6-5-3------------------------------------------------------------|
E|--4-3-----4-3--------------------------------------------------------------|

Order
Intro- x2
Verse- x2
Chorus- x1
Intro- x2
Verse- x2
Chorus- x1
Intro- x2
Thing after second chorus- x7
Chorus- x1
Outro- x1

And that's about it. Got any response?  I don't wanna hear about it.
===============================================================================
Comments