Rancid - Black Lung Chords & Tabs

 

Black Lung Chords & Tabs

Rancid Chords & Tabs

Version: 4 Type: Tab 0 ratings
1 star 2 stars 3 stars 4 stars 5 stars
comments

Black Lung Tab

This is my first tab so sorry in advance if i screw it up somehow
Artist:Rancid
Song:Black Lung
Album:Life Won't Wait(1998)
Tabbed By:Jon
Standard Tuning

intro/bridge like thingie
e|-----------------------------------------|
B|-----------------------------------------|
G|-5-3-5-7-5-3-5-5-3-3-5-------------------|
D|-----------------------------------------|
A|-----------------------------------------|
E|-----------------------------------------|

chords behind lead(listen to song for timing/strum pattern)
e|-----------|
B|-----------|
G|------5----|
D|--6-5-5----|
A|--6-5-3----|
E|--4-3-x----|
[ Tab from: http://www.guitartabs.cc/tabs/r/rancid/black_lung_tab_ver_4.html ]
Verse
Lead(gtr 2 using bkg chords in intro)
e|--5--------------------------------|
B|----6------------------------------|
G|------5----------------------------|
D|--------------xxxxxxxx-------------|
A|--------------xxxxxxxx-Pick Slide--|
E|--------------xxxxxxxx-------------|

Chorus(again im lazy so im just putting the chords played)
e|----------------------------------|
B|----------------------------------|
G|----3-6------3-6---3-6------------|
D|--3-3-6-6--3-3-6-6-3-6-6----------|
A|--3-1-4-6--3-1-4-6-1-4-6----------|
E|--1-x-x-4--1-x-x-4-x-x-4----------|
Lead and bkg chords
Verse(x2,pickslide on last time)
Bridge
e|----
B|----
G|----
D|--5-
A|--5-
E|--3-
Chorus
Outro:Bkg chords in lead
and that's it. Rancid is the shiznat
Comments