Rancid - Black Lung Chords & Tabs

 

Black Lung Chords & Tabs

Rancid Chords & Tabs

Version: 3 Type: Tab 0 ratings
1 star 2 stars 3 stars 4 stars 5 stars
comments

Black Lung Tab

   
-----------------------------------------------------------------------------
			    BLACK LUNG - Rancid
-----------------------------------------------------------------------------
Tabbed by: Rocky
Email: sillyfukhead@hotmail.com

Tuning: Standard

Intro/bridge:

Guitar 1
e|--------------------------------|
B|--1---1-3-1---1---1-----1-------|
G|----3-------3-------3-3---------| x4
D|--------------------------------| 
A|--------------------------------|
E|--------------------------------|

Guitar 2
e|--------------------------------|
B|--------------------------------|
G|--------55--55----------55--55--| x4
D|66--55--55--55--66--55--55--55--|
A|66--55--33--33--66--55--33--33--|
E|44--33--33--33--44--33----------|

Verse (Sign a petition under working condition...):

Guitar 1
e|8-------------------------------8-------------------------------|
B|-9-------------------------------9------------------------------|
G|--10------------------------------10----------------------------|
D|----------------10------------------------------10--------------|
A|----------------------------------------------------------------|
E|----------------------------------------------------------------|

Guitar 2
e|----------------------------------------------------------------|
B|----------------------------------------------------------------|
G|10--10--10--10--12--12--12--12--10--10--10--10--12--12--12--12--|
D|10--10--10--10--10--10--10--10--10--10--10--10--10--10--10--10--|
A|8---8---8---8---10--10--10--10--8---8---8---8---10--10--10--10--|
E|----------------------------------------------------------------|
[ Tab from: http://www.guitartabs.cc/tabs/r/rancid/black_lung_tab_ver_3.html ]
Chorus (Some things get me going...):

Guitars
e|----------------------------------------------------------------
B|----------------------------------------------------------------
G|--------3-3333336-666666----------------3-3333336-666666--------
D|3-3333333-3333336-6666666-6666663-3333333-3333336-6666666-666666
A|3-3333331-1111114-4444446-6666663-3333331-1111114-4444446-666666
E|1-111111----------------4-4444441-111111----------------4-444444

e|----------------|
B|----------------|
G|3-3333336-666666|
D|3-3333336-666666|
A|1-1111114-444444|
E|----------------|

Bridge
Verse
Chorus
Bridge

Fill (Hey unbeliever...):

Guitar 1
e|--------------------------------3---3---3---3---3---3---3---3---|
B|--------------------------------1---1---1---1---1---1---1---1---|
G|--------------------------------0---0---0---0---0---0---0---0---|
D|--------------------------------1---1---1---1---1---1---1---1---|
A|--------------------------------3---3---3---3---3---3---3---3---|
E|----------------------------------------------------------------|

Guitar 2
e|----------------------------------------------------------------|
B|----------------------------------------------------------------|
G|5---5---5---5---5---5---5---5---5---5---5---5---5---5---5---5---|
D|5---5---5---5---5---5---5---5---5---5---5---5---5---5---5---5---|
A|3---3---3---3---3---3---3---3---3---3---3---3---3---3---3---3---|
E|----------------------------------------------------------------|

Chorus
Bridge (minus Guitar 1)

=============================================================================
Comments