Rancid - Black Lung Chords & Tabs

 

Black Lung Chords & Tabs

Rancid Chords & Tabs

Version: 2 Type: Bass Tab 0 ratings
1 star 2 stars 3 stars 4 stars 5 stars
comments

Black Lung Bass Tab

Song: Black Lung
Band: Rancid
Album: Life Won't Wait
Tabbed by: Ryan Christo

G:-----------------------------------------------------------------
D:---------------------1---3-1-------------------------1---3-1-----
A:-----3-------1---3-3---3-----3-1-----3-------1---3-3---3-----3-1-
E:-4-4---4-3-3---3-----------------4-4---4-3-3---3-----------------

G:-----------------------------------------------------------------
D:---------------------1---3-1-------------------------1---3-1-----
A:-----3-------1---3-3---3-----3-1-----3-------1---3-3---3-----3-1-
E:-4-4---4-3-3---3-----------------4-4---4-3-3---3-----------------

G:-----------------------------------------------------------------
D:---------------------1---3-1-------------------------1---3-1-----
A:-----3-------1---3-3---3-----3-1-----3-------1---3-3---3-----3-1-
E:-4-4---4-3-3---3-----------------4-4---4-3-3---3-----------------

G:-----------------------------------------
D:----------------3-1----------------------
A:--------11-4-44-----3-1-3-33-333-3-1-----
E:-1-11-1------------------------------4-3-

G:-----------------------------------------
D:----------------3-1----------------------
A:--------11-4-44-----3-1-3-33-333-3-1-----
E:-1-11-1------------------------------4-3-

G:----------------------------------------
D:----------------------------------------
A:-----------1-11-111-4-44-3-1-3----------
E:-1-11-1-44---------------------4-44-444-

G:----------------------------------------------------------
D:----------------------------------------------------------
A:-----------1-11-111-4-44-3-1-3----------1-11-111-4-44-444-
E:-1-11-1-44---------------------4-44-444-------------------

G:-----------------------------------------------------------------
D:---------------------1---3-1-------------------------1---3-1-----
A:-----3-------1---3-3---3-----3-1-----3-------1---3-3---3-----3-1-
E:-4-4---4-3-3---3-----------------4-4---4-3-3---3-----------------
[ Tab from: http://www.guitartabs.cc/tabs/r/rancid/black_lung_btab_ver_2.html ]
G:-----------------------------------------------------------------
D:---------------------1---3-1-------------------------1---3-1-----
A:-----3-------1---3-3---3-----3-1-----3-------1---3-3---3-----3-1-
E:-4-4---4-3-3---3-----------------4-4---4-3-3---3-----------------

G:-----------------------------------------
D:----------------3-1----------------------
A:--------11-4-44-----3-1-3-33-333-3-1-----
E:-1-11-1------------------------------4-3-

G:-----------------------------------------
D:----------------3-1----------------------
A:--------11-4-44-----3-1-3-33-333-3-1-----
E:-1-11-1------------------------------4-3-

G:------------------------------------------
D:-------------------------3-1--------------
A:-----------1-11-111-4-44-----3-1----------
E:-1-11-1-44-----------------------4-44-444-

G:------------------------------------------------------------
D:-------------------------3-1--------------------------------
A:-----------1-11-111-4-44-----3-1----------1-11-111-4-44-444-
E:-1-11-1-44-----------------------4-44-444-------------------

PAUSE

G:-----------------------------------------------------------------
D:---------------------1---3-1-------------------------1---3-1-----
A:-----3-------1---3-3---3-----3-1-----3-------1---3-3---3-----3-1-
E:-4-4---4-3-3---3-----------------4-4---4-3-3---3-----------------

G:---------0-0-3h5---------0-0-3h5---------0-0-3h5---------0-0-3h5-
D:-----3-3-------------3-3-------------3-3-------------3-3---------
A:-3-3-------------3-3-------------3-3-------------3-3-------------
E:-----------------------------------------------------------------

G:------------------------------------------
D:-------------------------3-1--------------
A:-----------1-11-111-4-44-----3-1----------
E:-1-11-1-44-----------------------4-44-444-

G:------------------------------------------------------------
D:-------------------------3-1--------------------------------
A:-----------1-11-111-4-44-----3-1----------1-11-111-4-44-444-
E:-1-11-1-44-----------------------4-44-444-------------------

G:---------------------------------------------------
D:---------------------1---3-1-----------------------
A:-----3-------1---3-3---3-----3-1-----3-------1---3-
E:-4-4---4-3-3---3-----------------4-4---4-3-3---3---


Comments