Rancid - Ben Zanotto Chords & Tabs

 

Ben Zanotto Chords & Tabs

Rancid Chords & Tabs

Version: 2 Type: Bass Tab 0 ratings
1 star 2 stars 3 stars 4 stars 5 stars
comments

Ben Zanotto Bass Tab

Rancid
"Ben Zanotto"
Unrealesed
By: misfit809@Hotmail.com

Intro and Chorus:
   x2
G:--------------|
D:--------------|
A:---5---3---5--|
E:-3---3---3---3|

Verse:
[ Tab from: http://www.guitartabs.cc/tabs/r/rancid/ben_zanotto_btab_ver_2.html ]
G:----------------------------------------|
D:-----------------------------5-5-5-4-4-4|
A:---------7-7---------5-5-5-5------------|
E:-8-8-8-8-----0-0-0-0--------------------|

Bridge:

G:--------4---------------------------|
D:-5-5-5-5-4-4-4-4-2-2-2-2------------|
A:------------------------------------|
E:-------------------------3-3-3-3-3-3|
Comments