Rancid - Axiom Chords & Tabs

 

Axiom Chords & Tabs

Rancid Chords & Tabs

Version: 1 Type: Bass Tab 0 ratings
1 star 2 stars 3 stars 4 stars 5 stars
comments

Axiom Bass Tab

   
Rancid
"Axiom"
By: Alec (misfit809@Hotmail.com)

Intro:

G:---------------------0-0-0-0-0-0-0-0|
D:-----------1-1----------------------|
A:---------------1-1-1----------------|
E:-3-3-3-3-3--------------------------|

Solo:

G:-----0---------------0-------3-5-3-------------------|
D:---2---3-2---3-2-3-4--3-4-5-------5-4-3-2-3-2-3-4-5-5|
A:-3---------3-----------------------------------------|
E:-----------------------------------------------------|

G:-3-4-5-3---------------------3-4-5-8-10-12-12-10-8-8|
D:---------5-4-2-2-3-2-3-4-5-5------------------------|
A:----------------------------------------------------|
E:----------------------------------------------------|

G:12-8-8-8-8-10-8-12-8-10-8----------------------|
D:-----------------------------------------------|
A:--------------------------------6-7-8-10-6-6-6-|
E:--------------------------6-7-8----------------|
[ Tab from: http://www.guitartabs.cc/tabs/r/rancid/axiom_btab.html ]
G:----------9-10-11-12-11-10-9------10-12-12-15-17-19|
D:-10-10-10--------------------12-12-----------------|
A:---------------------------------------------------|
E:---------------------------------------------------|

G:-19-17-19-17-19-17-19-17-20-17-19-17-19-17-19-17-|
D:-------------------------------------------------|
A:-------------------------------------------------|
E:-------------------------------------------------|

G:19-------17------------------------|
D:---19-20----20-19-20-19------------|
A:------------------------19-17------|
E:------------------------------16-15|

Verse:

G:-------------------------------------------------|
D:-------------1-2-3-3-3-------------1--1----------|
A:-3-3-3-3-3-3-----------3-3-3-3-3-3---3--3-1-1-1-3|
E:-------------------------------------------------|

Chorus:

G:------------------------------|
D:-1-1-1-1-1--------------------|
A:-----------3-3-3-3-3----------|
E:---------------------3-3-3-3-3|

Comments