Rancid - Avenues And Alleyways Chords & Tabs

 

Avenues And Alleyways Chords & Tabs

Rancid Chords & Tabs

Version: 3 Type: Bass Tab 0 ratings
1 star 2 stars 3 stars 4 stars 5 stars
comments

Avenues And Alleyways Bass Tab

Intro:
|---------------------------------|
|---------------------------------|
|-----------3---------5----3------|
|-3----3---------3--------------3-|

Verse:
|-----------------------------------------------
|-----------------------------------------------
|------------------------3--3--3--3--3--3--3--3-
|-3--3--3--3--3--3--3--3------------------------

-----------------------------------------------|
-----------------------------------------------|
------------------------3--3--3--3--3--3--3--3-|
-3--3--3--3--3--3--3--3------------------------|

Pre-chorus:
|---------------------------------------------------
|----------------------------------3--3--2--2--5--5-
|-------2--2--3--3--5--5--3--3--3-------------------
|-3--3----------------------------------------------

---------------------------------------------------|
----------------------------------3--3--2--2--5--5-|
-------2--2--3--3--5--5--3--3--3-------------------|
-3--3----------------------------------------------|
[ Tab from: http://www.guitartabs.cc/tabs/r/rancid/avenues_and_alleyways_btab_ver_3.html ]
Chorus:
|---------------------------------------------------------------------
|---------------------------------------------------------------------
|-5--5--5--5--5--5--5--5--3--3--3--3--3--2--0-------------------------
|----------------------------------------------3--3--3--3--3--3--3--3-

---------------------------------------------------------------------
---------------------------------------------------------------------
-------2-----3-----2--3--5--5--5--5--5--5--5--5--3--3--3--3--3--2--0-
-3--3-----3-----3----------------------------------------------------

------------------------------------------------|
------------------------------------------------|
------------------------------------------------|
-3--3--3--3--3--3--3--3--3--3--3--3--3--3--3--3-|
Bridge/Outro:
|-------------|
|-------------|
|-5----3------|
|-----------3-|

heres the order of the song if your too lazy to here it for yourself-
Intro
Verse
Pre-chorus
Verse
Pre-chorus
Chorus
Intro
Verse
Pre-chorus
Chorus
Bridge(x2)
Chorus(x2)
Outro
Comments