Rancid - As One Chords & Tabs

 

As One Chords & Tabs

Rancid Chords & Tabs

Version: 2 Type: Bass Tab 0 ratings
1 star 2 stars 3 stars 4 stars 5 stars
comments

As One Bass Tab

Rancid
Bass Tabliture for As One:
Intro: (Start by sliding up from low E, repeat 1x)
G:-------------------------------------------------
D:----------5-4-4-5-5-6-7-----4-------5-5-4--------
A:----4--7-----------------5-----5--7-------7-5-4--
E:5------------------------------------------------
Verse: (Repeat 3x)
G:----------------------------------------------------
D:-------------------------------4--4---------6--6-9--
A:-----4--4-7-------4--4-7--5--5------5--7--7---------
E:5--5---------5--5-----------------------------------
Variation in 2nd line of 1st verse:
G:-----------------------------------------------------
D:-----------------------------------------------------
A:----------------------------5--5------5--7--5--4-----
E:5--5-5-0-0-3-3-5--5-0--0-3-------5--5-------------7--
Chorus: (Repeat 3x)
G:-----------------------
D:-----------------------
A:--------5---5-4-4-3----
E:5---0---------------5--



Figured out and written by Fidget

[ Tab from: http://www.guitartabs.cc/tabs/r/rancid/as_one_btab_ver_2.html ]
Comments