Rancid - Arrested In Shanghai Chords & Tabs

 

Arrested In Shanghai Chords & Tabs

Rancid Chords & Tabs

Version: 3 Type: Tab 0 ratings
1 star 2 stars 3 stars 4 stars 5 stars
comments

Arrested In Shanghai Tab

Band: Rancid
Song: Arrested in Shanghai
Tabbed by: Rubidubi

Intro (repeat a few times)

e----------------------------------------------------------------------|
b-10-9--7-7-7-9-7------------------------------------------------------|
G----------------------------------------------------------------------|
D----------------------------------------------------------------------|
A----------------------------------------------------------------------|
E----------------------------------------------------------------------|

Chorus (repeat a few times too...)
[ Tab from: http://www.guitartabs.cc/tabs/r/rancid/arrested_in_shanghai_tab_ver_3.html ]
e----------------------------------------------------------------------|
b----------------------------------------------------------------------|
G----------------------------------------------------------------------|
D-11--11-11-11-11-11-9--9-9-9-9-9-9-9----------------------------------|
A-11--11-11-11-11-11-9--9-9-9-9-9-9-9----------------------------------|
E-9---9--9--9--9--9--7--7-7-7-7-7-7-7----------------------------------|


Bridge (Just repeat...)

e----------------------------------------------------------------------|
b----------------------------------------------------------------------|
g----------------------------------------------------------------------|
D-11--11-11-14--14--9--9-9-9-9-9-9-9-----------------------------------|
G-11--11-11-14--14--9--9-9-9-9-9-9-9-----------------------------------|
E-9---9--9--12--12--7--7-7-7-7-7-7-7-----------------------------------|

That's it! It's a nice Song! Sounds quite alright to me...
If you want more tabs, Lyrics or anything else, write me a mail...
(You can send death threats too...)

Have fun with this song!!!
Comments