Rancid - Arrested In Shanghai Chords & Tabs

 

Arrested In Shanghai Chords & Tabs

Rancid Chords & Tabs

Version: 2 Type: Tab 0 ratings
1 star 2 stars 3 stars 4 stars 5 stars
comments

Arrested In Shanghai Tab

Rancid - Arrested In Shanghai
Album : Indestructible

Very east son

Lead
E|---5---4---2--2-2-4-2~-|
B|-----------------------|
G|-----------------------|
D|-----------------------|
A|-----------------------|
E|-----------------------|
[ Tab from: http://www.guitartabs.cc/tabs/r/rancid/arrested_in_shanghai_tab_ver_2.html ]
The Xylaphone part (can't spell)
E|-----5-----4--2-0-2-4-2-(0)-|
B|---5-----5------------------|
G|-6-----4--------------------|
D|----------------------------|
A|----------------------------|
E|----------------------------|

Chorus
E|----------------------------|
B|----------------------------|
G|-9999--6666---4-4-4-4-4-4-4-|
D|-9999--6666---4-4-4-4-4-4-4-|
A|-7777--4444---2-2-2-2-2-2-2-|
E|----------------------------|

Bridge (Distortion)
E|-5--4---2-2--4-|
B|-5--5---2-2--5-|
G|-6--4---4-4--4-|
D|---------------|
A|---------------|
E|---------------|

Extremely east song. Support the band, by the cd. Any comment e-mail me at
Stephanc88@hotmail.com
Comments