Rancid - Antennas Chords & Tabs

 

Antennas Chords & Tabs

Rancid Chords & Tabs

Version: 2 Type: Bass Tab 0 ratings
1 star 2 stars 3 stars 4 stars 5 stars
comments

Antennas Bass Tab

Song:  ANTENNAS
Band:  RANCID
Album:  RANCID 2000
Tabbed By:  DAN HAVOC, BASSIST FOR THE NEUTRALS

VERSE

G:---------------------------------------------------
D:----------------------------------------------------
A:-----------------------5-5-5-5-5-----------------
E:---3>---0-0-0-0-0---------------3-3-3-3-3----

PRE-CHORUS
[ Tab from: http://www.guitartabs.cc/tabs/r/rancid/antennas_btab_ver_2.html ]
G:-----------------------------------------------------------------
D:------------------------------------------------------------------
A:---5-4-3-3-3-3-3---------------5-5-5-5-5-5-5-5-5-5-----
E:----------------------0-0-0-0-0----------------------------3\--

OUTRO

G:----------------------------------------------------------
D:----------------------------------------------------------
A:-----------------5-5-5-5-5-----------------------------
E:---0-0-0-0-0----------------3-3-3-3-3-3-3-3-3-3--

Comments