Rancid - Animosity Chords & Tabs

 

Animosity Chords & Tabs

Rancid Chords & Tabs

Version: 1 Type: Bass Tab 0 ratings
1 star 2 stars 3 stars 4 stars 5 stars
comments

Animosity Bass Tab

Song: Animosity
Band: Rancid
Album: S/T
tabbed by: Keith Mattson


Intro and Verse
G:---------------------------------------------------------------
D:------234432----------123321-----------------------------------
A:--2344------432---1233-------1-3-------------------------------
E:22--------------11---------------------------------------------

Other Verse (repeat 1st part a couple times)
G:---------------------|-----------------------------------------
D:----------123321-----|-------234432----------123321---------
A:------1233------321--|---2344------432---1233------321--
E:2---11---------------|-22--------------11--------------------
[ Tab from: http://www.guitartabs.cc/tabs/r/rancid/animosity_btab.html ]
Chorus
G:----------------------------|----------------------------------
D:----------------------------|----------------------------------
A:5555-------333-2-0-3---023--|-55----333-2-0-3---023------------
E:-----555555----------3------|----55-----------3----------------

Bridge
G:----4-5-4---|---------------|----------------------------------
D:4-7-------7-|---------------|-4>-2>-1>-0>----------------------
A:------------|----00-23322-0-|----------------------------------
E:------------|-22------------|----------------------------------

Bridge                              End
G:------------------------------------------|--------------------
D:------------------------------------------|--------------------
A:4433220-4433220--4432443244332200---------|---0-2-3-2-0--------
E:------------------------------------------|-2-----------2------


Thats all of it, e-mail me at keithmattson@hotmail
if you have any questions.


Comments