Rancid - 7 Years Down Chords & Tabs

 

7 Years Down Chords & Tabs

Rancid Chords & Tabs

Version: 1 Type: Bass Tab 0 ratings
1 star 2 stars 3 stars 4 stars 5 stars
comments

7 Years Down Bass Tab

Artist: Rancid
Song:   7 Years Down
Album:  Let's Go!
Tabbed by mauro_b (benzanotto@libero.it)

INTRO
|-------------------------------------------------------|
|-------------------------------------------------------|
|--3--------3--------3--------------3-------------------|
|-------------------------3----1---------3-3-3-1-1-1-1--|
[ Tab from: http://www.guitartabs.cc/tabs/r/rancid/7_years_down_btab.html ]
CHORUS
|-----------------0------------------|
|--------2-2-2-3-3-------------------|
|--3-3-3--------------0-1------------|
|-------------------3-----3-1-1-1-1--|

VERSE
|-----------------------------------|
|--2-2-1-0-0-0-0-0-3-3-3-4-5-5-5-4--|
|-----------------------------------|
|-----------------------------------|

BRIDGE
|-----------------------x4--|--10-10-10-9-9-9-9-9--x8--|
|------5--------------------|--------------------------|
|--5-7---7-5-6-7-7-7-7------|--------------------------|
|---------------------------|--------------------------|

End with |------|
	 |------|
	 |--3~--|
	 |------|
Comments