Rancid - 11th Hour Chords & Tabs

 

11th Hour Chords & Tabs

Rancid Chords & Tabs

Version: 1 Type: Tab 0 ratings
1 star 2 stars 3 stars 4 stars 5 stars
comments

11th Hour Tab

RANCID - The 11th hour
And out come the wolves
Tune #2
Tabbed by: |_E-T_|
E-mail: Blake_irc55@hotmail.com

Send me a e-mail if a part is wrong.

-Guit1-

00:00
|--------------------|
|--------------------| X7
|------5-5-----------|
|-5-5--3-3--5-5------|
|-3-3-------3-3--5-5-| 
|----------------3-3-|

-guit2-
00:03
|-------|
|-------|
|-4-5-4-|
|-2-3-2-|
|-------|
|-------|

00:06
|-----------------------------------|
|-----------------------------------|
|-5454545454545-77-5454545454545-77-|
|-----------------------------------|
|-----------------------------------|
|-----------------------------------|

-guit1-
00:20
|------|
|------|
|------|
|------|
|-3~~4-|
|-1~~3-|
00:22
|--------------------|
|--------------------| X3
|------5-5-----------|
|-5-5--3-3--5-5------|
|-3-3-------3-3--5-5-| 
|----------------3-3-|
00:31
|------|
|------|
|------|
|------|
|-3~~4-|
|-1~~3-|

00:34
|-------------------------------|
|-------------------------------|
|-------------------------------|
|-----5-------5-------5---2-----|
|-3---3---3---3---3---3---0---5-|
|-1-------1-------1-----------3-|
00:45
|--------------------|
|--------------------| X5
|------5-5-----------|
|-5-5--3-3--5-5------|
|-3-3-------3-3--5-5-| 
|----------------3-3-|

-Guit2-
00:45
|-----------------------------------|
|-----------------------------------|
|-5454545454545-77-5454545454545-77-|
|-----------------------------------|
|-----------------------------------|
|-----------------------------------|
[ Tab from: http://www.guitartabs.cc/tabs/r/rancid/11th_hour_tab.html ]
-Guit1-
00:59
|------|
|------|
|------|
|------|
|-3~~4-|
|-1~~3-|
01:02
|--------------------|
|--------------------| X3
|------5-5-----------|
|-5-5--3-3--5-5------|
|-3-3-------3-3--5-5-| 
|----------------3-3-|
01:11
|------|
|------|
|------|
|------|
|-3~~4-|
|-1~~3-|
01:13
|-------------------------------|
|-------------------------------|
|-------------------------------|
|-----5-------5-------5---2-----|
|-3---3---3---3---3---3---0---5-|
|-1-------1-------1-----------3-|
01:25, 01:30
|---------------|
|---------------|
|-----5-4-------| X2
|-5---3-2-------|
|-3---------3---|
|-----------1---|

-Guit2-
01:27, 01:33
|---1---1---1---1-|
|--1---1---1---1--| X2
|-4---4---4---4---|
|-----------------|
|-----------------|
|-----------------|

-BoNgO and Guit2 (clear)-
01:36 
|--------------------------|
|--------------------------|
|-4-5-4--4-5-4--4-5-4--4-7-| 
|-2-3-2--2-3-2--2-3-2--2-5-|
|--------------------------|
|--------------------------|

-Guit1-
01:47
|--------------------|
|--------------------| X3
|------5-5-------7-7-|
|-5-5--3-3--5-5--5-5-|
|-3-3-------3-3------| 
|--------------------|
01:56
|------|
|------|
|------|
|------|
|-3~~4-|
|-1~~3-|
01:58
|----------------------------------------------------------|
|----------------------------------------------------------|
|----------------------------------------------------------|
|-----5-------5-------5---2-------5---2-------5--2-------5-|
|-3---3---3---3---3---3---0---5---3---0---5---3--0---5---3-|
|-1-------1-------1-----------3-----------3----------3-----|

-Guit2-
02:10, 02:15
|---------|
|---------|
|-4-5-7-5-| X2
|---------|
|---------|
|---------|

-Guit1-
02:21
|-------------------------------------------|
|-------------------------------------------| 
|------5-5----------------5-5---------------|
|-5-5--3-3--5-5------5-5--3-3--5-5------5-5-|
|-3-3-------3-3--5-5-3-3-------3-3--5-5-3-3-| 
|----------------3-3----------------3-3-----|

-Guit2-
02:21
|------------------------------------|
|------------------------------------|
|-5454545454545-77-5454545454545-77-5|
|------------------------------------|
|------------------------------------|
|------------------------------------|

                                
                            THE END
Comments