Ramshackel - Ramshackel Chords & Tabs

 

Ramshackel Chords & Tabs

Ramshackel Chords & Tabs

Version: 2 Type: Tab 0 ratings
1 star 2 stars 3 stars 4 stars 5 stars
comments

Ramshackel Tab

#----------------------------------PLEASE NOTE--------------------------------#
#This file is the author's own work and represents their interpretation of the#
#song. You may only use this file for private study, scholarship, or research.#
#-----------------------------------------------------------------------------#
#-- File created with Instab - http://www.pconline.com/~smcarey/instab.html --#
#-----------------------------------------------------------------------------#

Author/Artist: Ramshackel
Transcribed by: Niki Begg
Email: n_begg@hotmail.com

------------------------------------------------------------------------------|
-7h8--8---------12p10---12p10--10p8--8p7-----------------------------------10-|
----------9----------12------12----9-----9--7h9--9------7h9--9--12----9h12----|
------------------------------------------------------------------------------|
------------------------------------------------------------------------------|
------------------------------------------------------------------------------|


--------------------------------------------14h15p14----14h15p14-17--14h15p14-|
-12p10-------12p10-12---15p12-15--17p15--17----------17-----------------------|
--------7---------------------------------------------------------------------|
------------------------------------------------------------------------------|
------------------------------------------------------------------------------|
------------------------------------------------------------------------------|

[ Tab from: http://www.guitartabs.cc/tabs/r/ramshackel/ramshackel_tab_ver_2.html ]
------14h15p14----14h15p14----14-15-17-19-20-19----17h19----------------------|
-17------------15----------17-------------------------------------------------|
------------------------------------------------------------------------------|
------------------------------------------------------------------------------|
------------------------------------------------------------------------------|
------------------------------------------------------------------------------|


-r1----------------------------------------------------------------------------|
-------------------------------------------------------------------------------|
-------------------------------------------------------------------------------|
------------------------------------5-----------7-----------5-4----------------|
------------------------------------5-----------7-----------5-4----------------|
----0---0---0---0---0---0---0---0---3---0---0---5---0---0---3-2----------------|
 pm------------------------------       -----       ---------------------------|

-r2----------------------------------------------------------------------------|
-------------------------------------------------------------------------------|
---------------------------------------------------5-/-7---------9---9---9-/---|
------------------5------------7-----------5-------5-/-7---7---5-9---9---9-/---|
------------------5------------7-----------5-------3-/-5---7---5-7---7---7-/---|
---0---0---0---0--3---0----0---5---0---0---3---0-----------5---3---------------|
 pm-------------      --- --       -----       --------------------------------|

------------------------------------------------------------------------------|
------------------------------------------------------------------------------|
-12-------12-12---------------------------------------------------------------|
-12-------12-12---12---12---12--12\10---10---10-------------------------------|
-10-------10-10---12---12---12--12\10---10---10-------------------------------|
------------------10---10---10--10\8----8----8--------------------------------|
Comments