Ramones - Zero Zero Ufo Chords & Tabs

 

Zero Zero Ufo Chords & Tabs

Ramones Chords & Tabs

Version: 2 Type: Tab 0 ratings
1 star 2 stars 3 stars 4 stars 5 stars
comments

Zero Zero Ufo Tab

any shit  DESTINYPUNK@HOTMAIL.COM

ZeRo ZeRo UFO

intro and verse

6--0-0--5-5-5--5-5-5-5--3-3--0-0---
5--2-2--7-7-7--7-7-7-7--5-5--2-2---
4--2-2--7-7-7--7-7-7-7--5-5--2-2---
3----------------------------------  repeat a few times
2----------------------------------
1----------------------------------

chorus

6------------------------
5--3-3-3-3-3-3-3-3-3-3---
4--5-5-5-5-5-5-5-5-5-5---
3--5-5-5-5-5-5-5-5-5-5---  first part
2------------------------
1------------------------

6--------------------------------
5--7-7-7--10/12-12-12-12-12-12---
4--9-9-9--x-x-x-x-x-x-x-x-x-x-x--
3--9-9-9--12/14-14-14-14-14-14---  second part
2--------------------------------  x2
1--------------------------------

a little part like this.....

6--7-7-7-7-7-7---
5--9-9-9-9-9-9---
4--9-9-9-9-9-9---
3---------------- x2
2----------------
1----------------

then repeat another verse another chorus and then......
[ Tab from: http://www.guitartabs.cc/tabs/r/ramones/zero_zero_ufo_tab_ver_2.html ]
solo

6-----------------------------------------------------------------------------
5-----------------------------------------------------------------------------
4-----------------------------------------------------------------------------
3-----------------------------------------------------------------------------
2-----------------------------------------------------------------------------
1--0-0-0-0-0-0-0-0--7-7-7-7-7-7-7-7--x2--12-12-12-12-12-12--7-7-7-7-7-7-7-7---

6-----------------------------------------------
5-----------------------------------------------
4-----------------------------------------------
3-----------------------------------------------
2-----------------------------------------------
1--12-12-12-12-12-12--7-7-7-7--12-12-12-12-12---

then repeat the chorus x2 and then the second part of the chorus x2 and finish like this.....

end

6------
5--7---
4--9---
3--9---
2------
1------
Comments