Ramones - Were A Happy Family Chords & Tabs

 

Were A Happy Family Chords & Tabs

Ramones Chords & Tabs

Version: 3 Type: Tab 0 ratings
1 star 2 stars 3 stars 4 stars 5 stars
comments

Were A Happy Family Tab

-------------------------------------------------------------------------------
			     We're a happy family - Ramones
-------------------------------------------------------------------------------

Tabbed by:Anavrin Seixip

PART 1:
e|---------------------------------------------------------------------------|
B|---------------------------------------------------------------------------|
G|---------------------------------------------------------------------------|
D|---9-----------------------------------------------------------------------|
A|-7-7-9-9-9-9-9-9-9-9-------------------------------------------------------|
E|-5---7-7-7-7-7-7-7-7-------------------------------------------------------|

[ Tab from: http://www.guitartabs.cc/tabs/r/ramones/were_a_happy_family_tab_ver_3.html ]
PART 2:
e|---------------------------------------------------------------------------|
B|---------------------------------------------------------------------------|
G|---------------------------------------------------------------------------|
D|-11-11-11-11-11-11-11-11-----9-9-9-9-9-9-9-9-12-14-------------------------|
A|-9--9--9--9--9--9--9--9--7-9-7-7-7-7-7-7-7-7-10-12-------------------------|
E|-------------------------5-7-----------------------------------------------|


PART 3:
e|---------------------------------------------------------------------------|
B|---------------------------------------------------------------------------|
G|---------------------------------------------------------------------------|
D|-9-9-9-9-12-12-12-12-9-9-9-9-14-14-14-14-9-9-9-9-12-12-12-12-7-7-7-7-7-----|
A|-7-7-7-7-10-10-10-10-7-7-7-7-12-12-12-12-7-7-7-7-10-10-10-10-5-5-5-5-5-----|
E|---------------------------------------------------------------------------|

Song order:
PART 1 (*4)
PART 2 (*2)
PART 3 (*4)
PART 1 (*4)
PART 2 (*2)
PART 3 (*4)
PART 1 (*4)
PART 2 (*2)
PART 3 (*6)

IT MAY LOOK A BIT ALL OVER THE PLACE, BUT ITS AS RIGHT AS I CAN MAKE IT SOUND!!
Comments