Ramones - Were A Happy Family Chords & Tabs

 

Were A Happy Family Chords & Tabs

Ramones Chords & Tabs

Version: 1 Type: Tab 0 ratings
1 star 2 stars 3 stars 4 stars 5 stars
comments

Were A Happy Family Tab

This is my first try to tabascii a song. Its a great song from the 
ramones, hope you like it.


 INTRO : 
-------------|--------------|------------|-------------------------|--
-------------|--------------|------------|-------------------------|--
3---55555555-|-3---55555555-|-5/77777777-|-5-7---------5-7---------|--
3-3-55555555-|-3-3-55555555-|-5/77777777-|-5-7-77777---5-7-55555---|--
1-3-33333333-|-1-3-33333333-|-3/55555555-|-3-5-77777---3-5-55555---|--
--1----------|---1----------|------------|-----55555-------33333---|--


[ Tab from: http://www.guitartabs.cc/tabs/r/ramones/were_a_happy_family_tab.html ]
----------------------|------------------------------------------------------
----------------------|------------------------------------------------------
5-7---------5-7-------|---------5-5-5---------7-7-7---------5-5-5------------
5-7-77777---5-7-55555-|-7-7-7-7-5-5-5-7-7-7-7-7-7-7-7-7-7-7-5-5-5-5-5-5-5-5-5
3-5-77777---3-5-55555-|-7-7-7-7-3-3-3-7-7-7-7-5-5-5-7-7-7-7-3-3-3-5-5-5-5-5-5
----55555-------33333-|-5-5-5-5-------5-5-5-5-------5-5-5-5-------3-3-3-3-3-3


RIFF 1 - MAIN VERSE
---------------------------------------------------------
---------------------------------------------------------
---------5-5-5---------7-7-7---------5-5-5---------------
-7-7-7-7-5-5-5-7-7-7-7-7-7-7-7-7-7-7-5-5-5-5-5-5-5-5-5---
-7-7-7-7-3-3-3-7-7-7-7-5-5-5-7-7-7-7-3-3-3-5-5-5-5-5-5---
-5-5-5-5-------5-5-5-5-------5-5-5-5-------3-3-3-3-3-3---

Repeat intro and the the main verse until the end.


Comments, suggestion e-mail me.

Comments