Ramones - The Kkk Took My Baby Away Chords & Tabs

 

The Kkk Took My Baby Away Chords & Tabs

Ramones Chords & Tabs

Version: 2 Type: Tab 0 ratings
1 star 2 stars 3 stars 4 stars 5 stars
comments

The Kkk Took My Baby Away Tab

   
This song is very easy to play and i reccomend it to beggeners such as myself.
K.  I think this is very accurate, and sounds just like the song, play along with
it and you too will notice it sounds just like it.  I am very sure of myself that
this is an exact depiction

Intro:

e:--------------------------------------------
b:--------------------------------------------
g:--------------------------------------------
d:-6-6-6-6-6--6-6-6-6-6--6-6-6-6-6--6-6-6-6-6-
a:-6-6-6-6-6--6-6-6-6-6--6-6-6-6-6--6-6-6-6-6-
e:-4-4-4-4-4--4-4-4-4-4--4-4-4-4-4--4-4-4-4-4-

K, this is the verse! you play this twice, then play the chorus, which i will
show after i show this verse.... yeah....  This part is when Joey says "She went
away for the Holiday, said she's goin to LA but she never got there"

e:-------------------------------------------------------------------
b:-------------------------------------------------------------------
g:--------------------------------------------------------8-8-8-8-8--
d:-6-6-6-6-6--6-6-6-6-6--3-3-3-3-3--3-3-3-3-3--8-8-8-8-8--8-8-8-8-8--
a:-6-6-6-6-6--6-6-6-6-6--3-3-3-3-3--3-3-3-3-3--8-8-8-8-8--6-6-6-6-6--
e:-4-4-4-4-4--4-4-4-4-4--1-1-1-1-1--1-1-1-1-1--6-6-6-6-6-------------

When you reach this part of the song repeat the chorus.

Now here comes the Chorus.  This is the part when Joey sings "The KKK took ma'
baby away" and repeats that, this part repeats two times.  

e:------------------------------------------------------------
b:------------------------------------------------------------
g:----------------------------6-6-6-6-6-6-6-6-8-8-8-8-8-8-8-8-
d:-6-6-6-6-6-6-6-6-6-6-6-6-6--6-6-6-6-6-6-6-6-8-8-8-8-8-8-8-8-
a:-6-6-6-6-6-6-6-6-6-6-6-6-6--4-4-4-4-4-4-4-4-6-6-6-6-6-6-6-6-
e:-4-4-4-4-4-4-4-4-4-4-4-4-4----------------------------------

This is the part where he sings "I dunno where my baby can be"  Repeat twice
Ima call this part the bridge to make things easier

e:---------------------------------------------------------
b:---------------------------------------------------------
g:-----------------------6-6-6-6-6-6-6-6-8-8-8-8-8-8-8-8-8-
d:-6-6-6-6-6--6-6-6-6-6--6-6-6-6-6-6-6-6-8-8-8-8-8-8-8-8-8-
a:-6-6-6-6-6--6-6-6-6-6--4-4-4-4-4-4-4-4-6-6-6-6-6-6-6-6-6-
e:-4-4-4-4-4--4-4-4-4-4------------------------------------

Ima call this part "Stuff" cuz it needs a name.  This part is where he
sings "Ring me ring me ring me up the president, find out where my baby went"
k...
[ Tab from: http://www.guitartabs.cc/tabs/r/ramones/the_kkk_took_my_baby_away_tab_ver_2.html ]
e:-----------------------------------------------------------------
b:-----------------------------------------------------------------
g:-6-6-6-6-6-6-6-6-8-8-8-8-8-8-8-8-6-6-6-6-6-6-6-6-8-8-8-8-8-8-8-8-
d:-6-6-6-6-6-6-6-6-8-8-8-8-8-8-8-8-6-6-6-6-6-6-6-6-8-8-8-8-8-8-8-8-
a:-4-4-4-4-4-4-4-4-6-6-6-6-6-6-6-6-4-4-4-4-4-4-4-4-6-6-6-6-6-6-6-6-
e:-----------------------------------------------------------------

e:---------------------------------
b:---------------------------------
g:-----------------8-8-8-8-8-8-8-8-
d:-8-8-8-8-8-8-8-8-8-8-8-8-8-8-8-8-
a:-8-8-8-8-8-8-8-8-6-6-6-6-6-6-6-6-
e:-6-6-6-6-6-6-6-6-----------------


After the "Stuff" you repeat the bridge twice, and then repeat the line below
four times.

e:-----------------
b:-----------------
g:-8-8-8-8-8-8-8-8-
d:-8-8-8-8-8-8-8-8-
a:-6-6-6-6-6-6-6-6-
e:-----------------

Now is a Part that is very similar to the verse, only higher!

e:-----------------------------------------------------------------
b:-----------------------------------------------------------------
g:-----------------------------------------------------------------
d:-8-8-8-8-8-8-8-8-8-8-8-8-8-8-8-8-5-5-5-5-5-5-5-5-5-5-5-5-5-5-5-5-
a:-8-8-8-8-8-8-8-8-8-8-8-8-8-8-8-8-5-5-5-5-5-5-5-5-5-5-5-5-5-5-5-5-
e:-6-6-6-6-6-6-6-6-6-6-6-6-6-6-6-6-3-3-3-3-3-3-3-3-3-3-3-3-3-3-3-3-

e:-----------------------------------------------------------------
b:---------------------------------5-5-5-5-5-5-5-5-5-5-5-5-5-5-5-5-
g:-5-5-5-5-5-5-5-5-5-5-5-5-5-5-5-5-5-5-5-5-5-5-5-5-5-5-5-5-5-5-5-5-
d:-5-5-5-5-5-5-5-5-5-5-5-5-5-5-5-5-3-3-3-3-3-3-3-3-3-3-3-3-3-3-3-3-
a:-3-3-3-3-3-3-3-3-3-3-3-3-3-3-3-3---------------------------------
e:-----------------------------------------------------------------

This is much like the Bridge, only higher much like the other verse.  Repeat twice

e:-----------------------------------------------------------------
b:---------------------------------3-3-3-3-3-3-3-3-5-5-5-5-5-5-5-5-
g:-3-3-3-3-3-3-3-3-3-3-3-3-3-3-3-3-3-3-3-3-3-3-3-3-5-5-5-5-5-5-5-5-
d:-3-3-3-3-3-3-3-3-3-3-3-3-3-3-3-3-1-1-1-1-1-1-1-1-3-3-3-3-3-3-3-3-
a:-1-1-1-1-1-1-1-1-1-1-1-1-1-1-1-1---------------------------------
e:-----------------------------------------------------------------


Now you repeat the Intro twice and that's the whole song.  I hope you like it!

-Noah Fenton
Comments