Ramones - The Crusher Chords & Tabs

 

The Crusher Chords & Tabs

Ramones Chords & Tabs

Version: 3 Type: Bass Tab

The Crusher Bass Tab

   
the crusher-the ramones

intro
G|------------------------------------------------|
D|-----------4-5-4--------------------------------|
A|-7-7-7-7-7-------5-4-3-3-3-3-3-3-3-3------------|
e|------------------------------------5-5-5-5-5-5-|repeat as needed
[ Tab from: http://www.guitartabs.cc/tabs/r/ramones/the_crusher_btab_ver_3.html ]
verse
G|-------------------------------------------------------|
D|-----------4-5-4---------------------------------------|
A|-7-7-7-7-7-----------5---4---3-3-3-3-3-3---------------|
e|-------------------------------------------5-5-5-5-5-5-|repeat as needed
  
G|----------------6--------------------------------|
D|------------4-5---4------------------------------|
A|-7-7-7-7-7-9---------5-4-3-3-3-3-3-3-------------|
e|------------------------------------5-5-5-5-5-5--|repeat as needed

bridge
G|---------------------------------|
D|-4-4-4-4-4-4-4-4-7-7-7-7---------|
A|-------------------------7-7-7-7-|
e|---------------------------------|

G|---------------------------------|
D|-4-4-4-4-4-4-4-4-7-7-7-7-7-7-7-7-|
A|---------------------------------|
e|---------------------------------|

chorus
G|-----------------------------------------------------|
D|-----------4-5-4-------------------------------------|
A|-7-7-7-7-7-------5-4-----4-3-3-3-3-3-3---------------|
e|-----------------------------------------5-5-5-5-5-5-|repeat as needed

-punkbass479