Ramones - Teenage Labotomy Chords & Tabs

 

Teenage Labotomy Chords & Tabs

Ramones Chords & Tabs

Version: 2 Type: Tab 0 ratings
1 star 2 stars 3 stars 4 stars 5 stars
comments

Teenage Labotomy Tab

   
----------------------------------------------------------------------------
			     Teenage Labotomy- Ramones
----------------------------------------------------------------------------
Tabbed by:stonedguitarist
Email:aerozeppelin@aol.com

Tuning:Standard
   fig.i                (end of fig. 1) 
   B F#m B              B F#m B
e|---------------------------------------------------------|
B|---------------------------------------------------------|
G|-4-----4-4-4-4-4-4----4----------------------------------|
D|-4--4--4-4-4-4-4-4----4--4---9-9-9-9-9-9-----------------|
A|-2--4--2-2-2-2-2-2----2--4---9-9-9-9-9-9-----------------|
E|----2--------------------2---7-7-7-7-7-7-----------------|

e|---------------------------------------------------------|
B|---------------------------------------------------------|
G|--9--7-------------------------7-7-7-7-7-7---------------|
D|--9--7--7-7-7-7-7-7--x4--7--5--7-7-7-7-7-7--x2-----------|
A|--7--5--7-7-7-7-7-7------7--5--5-5-5-5-5-5---------------|
E|--------5-5-5-5-5-5------5--3----------------------------|

1.3. DDT did a job on me              now I am a real sickie
2.Slugs and sanails are after me      DDT  keeps  me  happy
 fig.2                                (end fig. 2)   
     A                                E
e|--------------------------------------------------------------|
B|--------------------------------------------------------------|
G|------------------------------------9-9-9-9-9-9-9-9-9-9-9-9---|
D|---7-7-7-7-7-7-7-7-7-7--------------9-9-9-9-9-9-9-9-9-9-9-9---|
A|---7-7-7-7-7-7-7-7-7-7--------------7-7-7-7-7-7-7-7-7-7-7-7---|
E|---5-5-5-5-5-5-5-5-5-5----------------------------------------|
[ Tab from: http://www.guitartabs.cc/tabs/r/ramones/teenage_labotomy_tab_ver_2.html ]
 Guess I'll have to break the news    That i got no mind to lose
 Now I guess i'll have to tell 'em    That I got no cerebellum
     A                                E
e|--------------------------------------------------------------|
B|--------------------------------------------------------------|
G|------------------------------------9-9-9-9-9-9-9-9-9-9-9-9---|
D|---7-7-7-7-7-7-7-7-7-7--------------9-9-9-9-9-9-9-9-9-9-9-9---|
A|---7-7-7-7-7-7-7-7-7-7--------------7-7-7-7-7-7-7-7-7-7-7-7---|
E|---5-5-5-5-5-5-5-5-5-5----------------------------------------|

  All the girls are in love with me  I'm a teenage Labotomy
  gonna get my PHD                   I'm a teenage labotomy 
   fig.3                             (fig.3)
     A                               F#m
e|---------------------------------------------------------|
B|---------------------------------------------------------|
G|---------------------------------------------------------|
D|---7-7-7-7-7-7-7-7-7-7------------4-4-4-4----------------|
A|---7-7-7-7-7-7-7-7-7-7------------4-4-4-4----------------|
E|---5-5-5-5-5-5-5-5-5-5------------2-2-2-2----------------|


   B F#m B              B F#m B
e|---------------------------------------------------------|
B|---------------------------------------------------------|
G|-4-----4-4-4-4-4-4----4----------------------------------|
D|-4--4--4-4-4-4-4-4----4--4---9-9-9-9-9-9-----------------|
A|-2--4--2-2-2-2-2-2----2--4---9-9-9-9-9-9-----------------|
E|----2--------------------2---7-7-7-7-7-7-----------------|


   
e|---------------------------------------------------------|
B|---------------------------------------------------------|
G|--9--7-------------------------7-7-7-7-7-7---------------|
D|--9--7--7-7-7-7-7-7--x4--7--5--7-7-7-7-7-7--x2-----------|
A|--7--5--7-7-7-7-7-7------7--5--5-5-5-5-5-5---------------|
E|--------5-5-5-5-5-5------5--3----------------------------|

e|-----------------------------------------------|
B|-----------------------------------------------|
G|--9--7-------------------------7---------------|
D|--9--7--7-7-7-7-7-7--x4--7--5--7---------------|
A|--7--5--7-7-7-7-7-7------7--5--5---------------|
E|--------5-5-5-5-5-5------5--3------------------|
Comments