Ramones - Spiderman Chords & Tabs

 

Spiderman Chords & Tabs

Ramones Chords & Tabs

Version: 2 Type: Tab 0 ratings
1 star 2 stars 3 stars 4 stars 5 stars
comments

Spiderman Tab

any shit  DESTINYPUNK@HOTMAIL.COM

SPIDER MAN (dedicated to the spiders)

INTRO

6------
5--5---
4--7---
3--7---  repeat a lot
2------
1------

VERSE

6-----------------3-3-3-3-3-3-3-3---------------5-5-5-5--3-3-3-3---
5--5-5-5-5-5-5-5--5-5-5-5-5-5-5-5--5-5-5-5-5-5--7-7-7-7--5-5-5-5---
4--7-7-7-7-7-7-7--5-5-5-5-5-5-5-5--7-7-7-7-7-7--7-7-7-7--5-5-5-5---
3--7-7-7-7-7-7-7-------------------7-7-7-7-7-7---------------------  x2
2------------------------------------------------------------------
1------------------------------------------------------------------

CHORUS

6----------------------------3-3-3-3-3-3------------------
5--8-8-8-8-8-8--3-3-3-3-3-3--5-5-5-5-5-5--5-5-5-5-5-5-5---
4--101010101010-5-5-5-5-5-5--5-5-5-5-5-5--7-7-7-7-7-7-7---
3--101010101010-5-5-5-5-5-5---------------7-7-7-7-7-7-7---
2---------------------------------------------------------
1---------------------------------------------------------

6----------------------------3-3-3-3-3-3--5-5-5-5-5-5-5---
5--8-8-8-8-8-8--3-3-3-3-3-3--5-5-5-5-5-5--7-7-7-7-7-7-7---
4--101010101010-5-5-5-5-5-5--5-5-5-5-5-5--7-7-7-7-7-7-7---
3--101010101010-5-5-5-5-5-5-------------------------------
2---------------------------------------------------------
1---------------------------------------------------------

then repeat the full song and the solo its like this...
[ Tab from: http://www.guitartabs.cc/tabs/r/ramones/spiderman_tab_ver_2.html ]
6------------------------------------------------------5/3-3----------------3--
5--12/5-5------------------5--12/5-5-----------------5-------2--5-5-5-5-5-2----
4----------3--7-7-7-7-7--3-----------3--7-7-7-7-7--3---------------------------
3------------------------------------------------------------------------------
2------------------------------------------------------------------------------
1------------------------------------------------------------------------------

6--3/5-5--3/5-5-5-5--3-3-3-3-3--1-3-1---------------------------
5--------------------------------------5-5-5-5------------------
4---------------------------------------------------------------
3---------------------------------------------------------------
2---------------------------------------------------------------
1----------------------------------------------5/10-(10)-(10)---

then repeat a chorus and then the end its the same like the verse but stay like this.....

6--5-5-5-5-5--3-3-3-3-3-3--5-5-5-5-5--3-3-3-3-3--5-5-5-5-5--3-3-3-3-------------
5--7-7-7-7-7--5-5-5-5-5-5--7-7-7-7-7--5-5-5-5-5--7-7-7-7-7--5-5-5-5--5--------5-
4--7-7-7-7-7--5-5-5-5-5-5--7-7-7-7-7--5-5-5-5-5--7-7-7-7-7--5-5-5-5--7--------7-
3--------------------------------------------------------------------7--------7-
2-------------------------------------------------------------------------------
1-------------------------------------------------------------------------------
Comments