Ramones - Spiderman Chords & Tabs

 

Spiderman Chords & Tabs

Ramones Chords & Tabs

Version: 1 Type: Tab 0 ratings
1 star 2 stars 3 stars 4 stars 5 stars
comments

Spiderman Tab

----------------------------------------------------------------------
			     Spiderman Theme - Ramones
----------------------------------------------------------------------

Tabbed By: StevoPunk42@aol.com

Comments: This is an awsome cover song by the Ramones. This is my first tab and
im sure about everything except the end of the solo. E-mail me for corrections. 

Intro:
e|-------------------------------------------------------------------|
B|-------------------------------------------------------------------|
G|-7-----------------------------------------------------------------|
D|-7-----------------------------------------------------------------|
A|-5-x28-------------------------------------------------------------|
E|-------------------------------------------------------------------|

Verse Type 1:
e|-------------------------------------------------------------------|
B|-------------------------------------------------------------------|
G|-7-------------7------------------7--------------------------------|
D|-7------5------7------7-----5-----7--------------------------------|
A|-5-x28--5------5-x14--7-----5-----5-x14----------------------------|
E|--------3-x14---------5-x7--3-x7-----------------------------------|

Verse Type 2:
e|-------------------------------------------------------------------|
B|-------------------------------------------------------------------|
G|-7--------------------------------------7------------------7-------|
D|-7------12-12--10-10--9-9--7-7--5-------7------7-----5-----7-------|
A|-5-x21--12-12--10-10--9-9--7-7--5-------5-x14--7-----5-----5-x14---|
E|--------10-10---8--8--7-7--5-5--3-x14----------5-x7--3-x7----------|
[ Tab from: http://www.guitartabs.cc/tabs/r/ramones/spiderman_tab.html ]
Chorus:
e|-------------------------------------------------------------------|
B|-------------------------------------------------------------------|
G|-10-----5-----------7-----10-----5---------------------------------|
D|-10-----5-----5-----7-----10-----5-----5-----7---------------------|
A|--8-x7--3-x7--5-----5-x7---8-x7--3-x7--5-----7---------------------|
E|--------------3-x7---------------------3-x7--5-x7------------------|

Verse Type 2

Instrumental Verse Type 1

Solo With Verse Type 1 As Background:
e|-------------------------------------------------------------------|
B|-------------------------------------------------------------------|
G|-------------------------------------------------------------------|
D|-------3-77-777-3------3-77-777-3----------------------3-77-777-3--|
A|12/5-5------------5--5------------5----2-55-555-2----5------------5|
E|-----------------------------------5/3------------3----------------|

e|-----------------------------------5\10-10-10-10-10-10-10-10-10----|
B|-------------------------------------------^Bend Up^---------------|
G|-------------------------------------------------------------------|
D|-------------------------------------------------------------------|
A|----------------------55555555-------------------------------------|
E|-3\555-3\555--333131-----------------------------------------------|

Chorus

Last Verse:
e|-------------------------------------------------------------------|
B|-------------------------------------------------------------------|
G|-7-------------7------------------------------------------7--------|
D|-7------5------7------7-----5-----7-----5-----7-----5-----7--------|
A|-5-x28--5------5-x14--7-----5-----7-----5-----7-----5-----5--------|
E|--------3-x14---------5-x7--3-x7--5-x7--3-x7--5-x7--3-x7-----------|

======================================================================
Comments