Ramones - Rockaway Beach Chords & Tabs

 

Rockaway Beach Chords & Tabs

Ramones Chords & Tabs

Version: 2 Type: Tab 0 ratings
1 star 2 stars 3 stars 4 stars 5 stars
comments

Rockaway Beach Tab


Tablatura de NICO M. (nicokbbl@hotmail.com)

Artista: Ramones
Cancion: Rockaway Beach
Album: Rocket To Russia (1977) 



Intro
1|--------------|------------------|------------------|
2|--------------|--6s7-7-7-7-7-7-7-|-7-7-7-7-7-7-7-7--|
3|--x--x--x--x--|--6s7-7-7-7-7-7-7-|-7-7-7-7-7-7-7-7--|
4|--x--x--x--x--|--6s7-7-7-7-7-7-7-|-7-7-7-7-7-7-7-7--|
5|--x--x--x--x--|--4s5-5-5-5-5-5-5-|-5-5-5-5-5-5-5-5--|
6|--x--x--x--x--|------------------|------------------|




1|--5-5-5-5-5-5-5-5-|-5-5-5-5-5-5-5-5-|-5-5-5-5-5-5-5-5-|-5-5-5-5-5-5-5-5--|
2|--5-5-5-5-5-5-5-5-|-5-5-5-5-5-5-5-5-|-5-5-5-5-5-5-5-5-|-5-5-5-5-5-5-5-5--|
3|--6-6-6-6-6-6-6-6-|-6-6-6-6-6-6-6-6-|-6-6-6-6-6-6-6-6-|-6-6-6-6-6-6-6-6--|
4|--7-7-7-7-7-7-7-7-|-7-7-7-7-7-7-7-7-|-7-7-7-7-7-7-7-7-|-7-7-7-7-7-7-7-7--|
5|--7-7-7-7-7-7-7-7-|-7-7-7-7-7-7-7-7-|-7-7-7-7-7-7-7-7-|-7-7-7-7-7-7-7-7--|
6|--5-5-5-5-5-5-5-5-|-5-5-5-5-5-5-5-5-|-5-5-5-5-5-5-5-5-|-5-5-5-5-5-5-5-5--|


   Chewing out a rhythm on my bubble gum
   The sun is out and I want some.

   It's not harad, not far to reach
   We can hitch a ride To Rockaway Beach.


1|------------------|-----------------|-----------------|-------------------|
2|--7-7-7-7-7-7-7-7-|-7-7-7-7-7-7-7-7-|-9-9-9-9-9-9-9-9-|-9-9-9-9-9-9-9-9---|
3|--7-7-7-7-7-7-7-7-|-7-7-7-7-7-7-7-7-|-9-9-9-9-9-9-9-9-|-9-9-9-9-9-9-9-9---|
4|--7-7-7-7-7-7-7-7-|-7-7-7-7-7-7-7-7-|-9-9-9-9-9-9-9-9-|-9-9-9-9-9-9-9-9---|
5|--5-5-5-5-5-5-5-5-|-5-5-5-5-5-5-5-5-|-7-7-7-7-7-7-7-7-|-7-7-7-7-7-7-7-7---|
6|------------------|-----------------|-----------------|-------------------|


   Up on the roof, out on the street
   Down in the playground the hot concrete
   Busride is too slow
   They blast out the disco on the radio


Coro (chorus)

1|--5--5-5-5-5-5-5-|-5-5-5-5-5-5-5-5-|-----------------|
2|--5--5-5-5-5-5-5-|-5-5-5-5-5-5-5-5-|-7--7-7-7-7-7-7--|
3|--6--6-6-6-6-6-6-|-6-6-6-6-6-6-6-6-|-7--7-7-7-7-7-7--|
4|--7--7-7-7-7-7-7-|-7-7-7-7-7-7-7-7-|-7--7-7-7-7-7-7--|
5|--7--7-7-7-7-7-7-|-7-7-7-7-7-7-7-7-|-5--5-5-5-5-5-5--|
6|--5--5-5-5-5-5-5-|-5-5-5-5-5-5-5-5-|-----------------|


   Rock Rock Rockaway Beach
   Rock Rock Rockaway Beach

  
1|------------------|-5--5-5-5-5-5-5-|-5-5-5-5-5-5-5-5--|
2|--7-7-7-7-7-7-7-7-|-5--5-5-5-5-5-5-|-5-5-5-5-5-5-5-5--|
3|--7-7-7-7-7-7-7-7-|-6--6-6-6-6-6-6-|-6-6-6-6-6-6-6-6--|
4|--7-7-7-7-7-7-7-7-|-7--7-7-7-7-7-7-|-7-7-7-7-7-7-7-7--|
5|--5-5-5-5-5-5-5-5-|-7--7-7-7-7-7-7-|-7-7-7-7-7-7-7-7--|
6|------------------|-5--5-5-5-5-5-5-|-5-5-5-5-5-5-5-5--|


   We can hitch a ride
   To Rockaway Beach
                
 
1|------------------|------------------|-------------------|
2|--9-9-9-9-9-9-9-9-|-9-9-9-9-9-9-9-9--|--9-9-9-9-9-9-9-9--|
3|--9-9-9-9-9-9-9-9-|-9-9-9-9-9-9-9-9--|--9-9-9-9-9-9-9-9--|
4|--9-9-9-9-9-9-9-9-|-9-9-9-9-9-9-9-9--|--9-9-9-9-9-9-9-9--|
5|--7-7-7-7-7-7-7-7-|-7-7-7-7-7-7-7-7--|--7-7-7-7-7-7-7-7--|
6|------------------|------------------|-------------------|




1|------10--10-10-10-10-|-10-------------------------------|
2|--12--10--10-10-10-10-|-10-------------------------------|
3|--12--11--11-11-11-11-|-11-13-14---9---9--9--9--9--9--9--|
4|--12--12--12-12-12-12-|-12-14-15--10--10-10-10-10-10-10--|
5|--10--12--12-12-12-12-|-12-14-15--10--10-10-10-10-10-10--|
6|------10--10-10-10-10-|-10-12-13---8---8--8--8--8--8--8--|


   It's not hard, not far to reach
   We can hitch a ride
   To Rockaway Beach.


                                                 
1|------10--10-10-10-10-|-10--------------------------------|
2|--12--10--10-10-10-10-|-10--------------------------------|
3|--12--11--11-11-11-11-|-11-13-14---9---9--9--9--9--9--9---|
4|--12--12--12-12-12-12-|-12-14-15--10--10-10-10-10-10-10---|
5|--10--12--12-12-12-12-|-12-14-15--10--10-10-10-10-10-10---|
6|------10--10-10-10-10-|-10-12-13---8---8--8--8--8--8--8---|


   It's not hard, not far to reach
   We can hitch a ride
   To Rockaway Beach.


[ Tab from: http://www.guitartabs.cc/tabs/r/ramones/rockaway_beach_tab_ver_2.html ]
1|--2-2-2-2-2-2-2-2-|-2-2-2-2-2-2-2-2-|-5-5-5-5-5-5-5-5-|-5-5-5-5-5-5-5-5--|
2|--2-2-2-2-2-2-2-2-|-2-2-2-2-2-2-2-2-|-5-5-5-5-5-5-5-5-|-5-5-5-5-5-5-5-5--|
3|--2-2-2-2-2-2-2-2-|-2-2-2-2-2-2-2-2-|-6-6-6-6-6-6-6-6-|-6-6-6-6-6-6-6-6--|
4|--4-4-4-4-4-4-4-4-|-4-4-4-4-4-4-4-4-|-7-7-7-7-7-7-7-7-|-7-7-7-7-7-7-7-7--|
5|--4-4-4-4-4-4-4-4-|-4-4-4-4-4-4-4-4-|-7-7-7-7-7-7-7-7-|-7-7-7-7-7-7-7-7--|
6|--2-2-2-2-2-2-2-2-|-2-2-2-2-2-2-2-2-|-5-5-5-5-5-5-5-5-|-5-5-5-5-5-5-5-5--|


   Chewing out a rhythm on my bubble gum
   The sun is out and I want some.
   It's not harad, not far to reach
   We can hitch a ride

   To Rockaway Beach.



1|--2-2-2-2-2-2-2-2-|-2-2-2-2-2-2-2-2-|-----------------|------------------|
2|--2-2-2-2-2-2-2-2-|-2-2-2-2-2-2-2-2-|-7-7-7-7-7-7-7-7-|-9-9-9-9-9-9-9-9--|
3|--2-2-2-2-2-2-2-2-|-2-2-2-2-2-2-2-2-|-7-7-7-7-7-7-7-7-|-9-9-9-9-9-9-9-9--|
4|--4-4-4-4-4-4-4-4-|-4-4-4-4-4-4-4-4-|-7-7-7-7-7-7-7-7-|-9-9-9-9-9-9-9-9--|
5|--4-4-4-4-4-4-4-4-|-4-4-4-4-4-4-4-4-|-5-5-5-5-5-5-5-5-|-7-7-7-7-7-7-7-7--|
6|--2-2-2-2-2-2-2-2-|-2-2-2-2-2-2-2-2-|-----------------|------------------|


   To Rockaway Beach.
   Up on the roof, out on the street
   Down in the playground the hot concrete
   Busride is too slow
   They blast out the disco on the radio


Coro (chorus)

1|-----5-------|----------|--5--5-5-5-5-5-5-|-5-5-5-5-5-5-5-5--|
2|--7--5-------|----------|--5--5-5-5-5-5-5-|-5-5-5-5-5-5-5-5--|
3|--7--6-------|----------|--6--6-6-6-6-6-6-|-6-6-6-6-6-6-6-6--|
4|--7--7-------|----------|--7--7-7-7-7-7-7-|-7-7-7-7-7-7-7-7--|
5|--5--7-------|----------|--7--7-7-7-7-7-7-|-7-7-7-7-7-7-7-7--|
6|-----5-------|----------|--5--5-5-5-5-5-5-|-5-5-5-5-5-5-5-5--|


   Rock Rock Rockaway Beach
   Rock Rock Rockaway Beach


1|-----------------|-----------------|-5--5-5-5-5-5-5--|
2|--7--7-7-7-7-7-7-|-7-7-7-7-7-7-7-7-|-5--5-5-5-5-5-5--|
3|--7--7-7-7-7-7-7-|-7-7-7-7-7-7-7-7-|-6--6-6-6-6-6-6--|
4|--7--7-7-7-7-7-7-|-7-7-7-7-7-7-7-7-|-7--7-7-7-7-7-7--|
5|--5--5-5-5-5-5-5-|-5-5-5-5-5-5-5-5-|-7--7-7-7-7-7-7--|
6|-----------------|-----------------|-5--5-5-5-5-5-5--|


   We can hitch a ride
   To Rockaway Beach


1|--5-5-5-5-5-5-5-5-|-----------------|------------------|----5-------|
2|--5-5-5-5-5-5-5-5-|-9-9-9-9-9-9-9-9-|-9-9-9-9-9-9-9-9--|-7--5-------|
3|--6-6-6-6-6-6-6-6-|-9-9-9-9-9-9-9-9-|-9-9-9-9-9-9-9-9--|-7--6-------|
4|--7-7-7-7-7-7-7-7-|-9-9-9-9-9-9-9-9-|-9-9-9-9-9-9-9-9--|-7--7-------|
5|--7-7-7-7-7-7-7-7-|-7-7-7-7-7-7-7-7-|-7-7-7-7-7-7-7-7--|-5--7-------|
6|--5-5-5-5-5-5-5-5-|-----------------|------------------|----5-------|




Coro (chorus)

1|-----5-------|----------|--5--5-5-5-5-5-5-|-5-5-5-5-5-5-5-5--|
2|--7--5-------|----------|--5--5-5-5-5-5-5-|-5-5-5-5-5-5-5-5--|
3|--7--6-------|----------|--6--6-6-6-6-6-6-|-6-6-6-6-6-6-6-6--|
4|--7--7-------|----------|--7--7-7-7-7-7-7-|-7-7-7-7-7-7-7-7--|
5|--5--7-------|----------|--7--7-7-7-7-7-7-|-7-7-7-7-7-7-7-7--|
6|-----5-------|----------|--5--5-5-5-5-5-5-|-5-5-5-5-5-5-5-5--|


   Rock Rock Rockaway Beach
   Rock Rock Rockaway Beach


1|-----------------|-----------------|-5--5-5-5-5-5-5--|
2|--7--7-7-7-7-7-7-|-7-7-7-7-7-7-7-7-|-5--5-5-5-5-5-5--|
3|--7--7-7-7-7-7-7-|-7-7-7-7-7-7-7-7-|-6--6-6-6-6-6-6--|
4|--7--7-7-7-7-7-7-|-7-7-7-7-7-7-7-7-|-7--7-7-7-7-7-7--|
5|--5--5-5-5-5-5-5-|-5-5-5-5-5-5-5-5-|-7--7-7-7-7-7-7--|
6|-----------------|-----------------|-5--5-5-5-5-5-5--|


   We can hitch a ride
   To Rockaway Beach



Coro (chorus)

1|-----5-------|----------|--5--5-5-5-5-5-5-|-5-5-5-5-5-5-5-5--|
2|--7--5-------|----------|--5--5-5-5-5-5-5-|-5-5-5-5-5-5-5-5--|
3|--7--6-------|----------|--6--6-6-6-6-6-6-|-6-6-6-6-6-6-6-6--|
4|--7--7-------|----------|--7--7-7-7-7-7-7-|-7-7-7-7-7-7-7-7--|
5|--5--7-------|----------|--7--7-7-7-7-7-7-|-7-7-7-7-7-7-7-7--|
6|-----5-------|----------|--5--5-5-5-5-5-5-|-5-5-5-5-5-5-5-5--|


   Rock Rock Rockaway Beach
   Rock Rock Rockaway Beach


1|-----------------|-----------------|-5--5-5-5-5-5-5--|----5----|
2|--7--7-7-7-7-7-7-|-7-7-7-7-7-7-7-7-|-5--5-5-5-5-5-5--|--7-5----|
3|--7--7-7-7-7-7-7-|-7-7-7-7-7-7-7-7-|-6--6-6-6-6-6-6--|--7-6----|
4|--7--7-7-7-7-7-7-|-7-7-7-7-7-7-7-7-|-7--7-7-7-7-7-7--|--7-7----|
5|--5--5-5-5-5-5-5-|-5-5-5-5-5-5-5-5-|-7--7-7-7-7-7-7--|--5-7----|
6|-----------------|-----------------|-5--5-5-5-5-5-5--|----5----|


   We can hitch a ride
   To Rockaway Beach
Comments