Ramones - Psycho Therapy Chords & Tabs

 

Psycho Therapy Chords & Tabs

Ramones Chords & Tabs

Version: 2 Type: Tab 0 ratings
1 star 2 stars 3 stars 4 stars 5 stars
comments

Psycho Therapy Tab

   
BAND: The Ramones
SONG: Psycho therapy (live)
GUITARRIST: Johnny Ramone
TABBER: Ignacio "Coco" Vespoli
E-MAIL: cocofuhgawz@hotmail.com

This version of the song is very different to the studio version, this one is faster
and punk-rocker than the other one. It also has got some variations, because it doesnt
have all the details of the studio version.

INTRO
e|-----------------------------------------------------------------------|
B|-----------------------------------------------------------------------|
G|-----------------------------------------------------------------------|
D|-6-6-6-6-6--4-6-6-6-6-6-6-6--6-6-6-6-6--4-6-6-6-6-6-6-6---repeat x2----|
A|-6-6-6-6-6--2-4-4-4-4-4-4-4--6-6-6-6-6--2-4-4-4-4-4-4-4----------------|
E|-4-4-4-4-4-------------------4-4-4-4-4---------------------------------|

e|-----------------------------------------------------------------------|
B|-----------------------------------------------------------------------|
G|-------------11-11-11-11-11-11-11-------------11-11-11-11-11-11-11-rep-|
D|-6-6-6-6-6-9-11-11-11-11-11-11-11-6-6-6-6-6-9-11-11-11-11-11-11-11-eat-|
A|-4-4-4-4-4-7-9--9--9--9--9--9--9--4-4-4-4-4-7-9--9--9--9--9--9--9---x2-|
E|-----------------------------------------------------------------------|


RIFF 1
e|--------------------|-------------------|
B|--------------------|-------------------|
G|--------------------|--11-11-11-11-9----|
D|-11-repeat a lot----|--11-11-11-11-9-9--|
A|-11-----------------|--9--9--9--9--7-9--|
E|-9------------------|----------------7--|
 

[ Tab from: http://www.guitartabs.cc/tabs/r/ramones/psycho_therapy_tab_ver_2.html ]
RIFF 2
e|--------------------------------| 
B|--------------------------------| 
G|--------------------------------| 
D|-9-9-9-9--9-9-9--9-9-9-9--9-9-9-| 
A|-9-9-9-9--9-9-9--9-9-9-9--9-9-9-| 
E|-7-7-7-7--7-7-7--7-7-7-7--7-7-7-| 


RIFF 3
e|-----------------------------------------------------------------|
B|-----------------------------------------------------------------|
G|-----------------------------------------------------------------|
D|-3-3-4-4-4-4-4---5-5-6-6-6-6-6---3-3-4-4-4-4-4---5-5-6-6-6-6-6---|
A|-3-3-4-4-4-4-4---3-3-4-4-4-4-4---3-3-4-4-4-4-4---3-3-4-4-4-4-4---|
E|-1-1-2-2-2-2-2-------4-4-4-4-4---1-1-2-2-2-2-2-------4-4-4-4-4---|


RIFF 4
e|----------------------------------|
B|----------------------------------|
G|----------------------------------|
D|--/9-9-9-9-9--10/11-11-11-11-11---|
A|-8/9-9-9-9-9--8-/9--9--9--9--9----|
E|-6/7-7-7-7-7----------------------|


RIFF 5
e|-------------|-------------|-------------|-------------------|
B|-------------|-------------|-------------|-------------------|
G|-------------|-------------|-------------|-------------------|
D|-7-7-7-7-7-7-|-9-9-9-9-9-9-|-9-9-9-9-9-9-|-11-11-11-11-11-11-|
A|-5-5-5-5-5-5-|-7-7-7-7-7-7-|-7-7-7-7-7-7-|-9--9--9--9--9--9--|
E|-------------|-------------|-------------|-------------------|


END
e|--------------------|----------------------|
B|--------------------|----------------------|
G|--------------------|--11-11-11-11-9-------|
D|-11-repeat a lot----|--11-11-11-11-9-9-11--|
A|-11-----------------|--9--9--9--9--7-9-11--|
E|-9------------------|----------------7-9---|

===================================================================
Comments? Send an e-mail!!!
Comments