Ramones - Pinhead Chords & Tabs

 

Pinhead Chords & Tabs

Ramones Chords & Tabs

Version: 3 Type: Tab 0 ratings
1 star 2 stars 3 stars 4 stars 5 stars
comments

Pinhead Tab

 These are the correct tabs for the Song of the album Leave Home "Pinhead"
 recorded in 1977. The song is based off the film "Freakes". Gabba Gabba Hey

     (Riff)
e|---------------------------------------|
B|-------------------------9--11---------|
G|-8/10-10-10-10-10-10-10--9--11--8--10--|
D|-9/11-11-11-11-11-11-11--9--11--9--11--|   (x4)
A|-9/11-11-11-11-11-11-11--7--9---9--11--|
E|-7/9--9--9--9--9--9--9----------7--9---|
[ Tab from: http://www.guitartabs.cc/tabs/r/ramones/pinhead_tab_ver_3.html ]
    Chorus
    I DON'T WANNA BE A  PINHEAD NO MORE...
e|----------------------------------------|
B|-------------------------------7--7-----|
G|-6/-8--8--8--8--8--8--8--6--8--7--7-----|
D|-7/-9--9--9--9--9--9--9--7--9--7--7-----|
A|-7/-9--9--9--9--9--9--9--7--9--5--9-----|
E|-5/-7--7--7--7--7--7--7--5--7-----------|
  I JUST MET A NURSE THAT I COULD GO FOR
e|----------------------------------------|
B|-------------------------------7--7-----|
G|-6/-8--8--8--8--8--8--8--6--8--7--7-----|
D|-7/-9--9--9--9--9--9--9--7--9--7--7-----|    (x2)
A|-7/-9--9--9--9--9--9--9--7--9--5--9-----|
E|-5/-7--7--7--7--7--7--7--5--7-----------|

   After Verse
e|----------------------------------------|
B|-9-9-9-9-9-9-9-9-9-9-9-9-9-9------------|
G|-9-9-9-9-9-9-9-9-9-9-9-9-9-9------------|
D|-9-9-9-9-9-9-9-9-9-9-9-9-9-9------------|
A|-7-7-7-7-7-7-7-7-7-7-7-7-7-7------------|
E|----------------------------------------|

After second verse
(Riff)

e|----------------------------------------------------|
B|----------------7------------------11---------------|
G|-8-8-8-8-8-8-8--7---6-6-6-6-6-6-6--11---------------|
D|-9-9-9-9-9-9-9--7---7-7-7-7-7-7-7--11---------------|
A|-9-9-9-9-9-9-9--5---7-7-7-7-7-7-7--9----------------| (2x) D-U-M-B everyones accusing me
E|-7-7-7-7-7-7-7------5-5-5-5-5-5-5-------------------|           (Play Verse)
 End
Gabba Gabba Gabba Hey Gabba Gabba Hey.....
e|----------------------------------------|
B|----------------7------------------11---|
G|-8-8-8-8-8-8-8--7---6-6-6-6-6-6-6--11---|
D|-9-9-9-9-9-9-9--7---7-7-7-7-7-7-7--11---|
A|-9-9-9-9-9-9-9--5---7-7-7-7-7-7-7--9----|
E|-7-7-7-7-7-7-7------5-5-5-5-5-5-5-------|
Comments