Ramones - Pinhead Chords & Tabs

 

Pinhead Chords & Tabs

Ramones Chords & Tabs

Version: 1 Type: Tab 0 ratings
1 star 2 stars 3 stars 4 stars 5 stars
comments

Pinhead Tab

E FLAT TUNING

INTRO/VERSE

RIFF 1
|---------------------------|
|---------------------------|
|--99999999----11---9-------|
|9-99999999-11-11-9-9-------|
|9-77777777-11-9--9-7-------|
|7----------9-----7---------| 
[ Tab from: http://www.guitartabs.cc/tabs/r/ramones/pinhead_tab.html ]
RIFF 2
|--------------------------|
|--------------------------|
|-999999999999-------------|
|-999999999999-------------|
|-777777777777-------------|
|--------------------------|

RIFF 3
|---------------------------|
|---------------------------|
|----------9----------11----|
|--9999999-9--9999999-11----|
|--9999999-7--9999999-9-----|
|--7777777----7777777-------|

SONGFLOW:
RIFF 1 8X
RIFF 2 1X
RIFF 1 8X
RIFF 2 1X
RIFF 1 4X
RIFF 3 2X
RIFF 1 2X BETWEEN BREAKS
RIFF 2 1X
RIFF 1 8X
RIFF 2 1X
RIFF 1 4X
RIFF 3 REPEAT TILL FADE OUT
Comments