Ramones - Pet Sematary Chords & Tabs

 

Pet Sematary Chords & Tabs

Ramones Chords & Tabs

Version: 1 Type: Bass Tab 0 ratings
1 star 2 stars 3 stars 4 stars 5 stars
comments

Pet Sematary Bass Tab

-------------------------------------------------------------------------------
			     Pet Sematary - Ramones
-------------------------------------------------------------------------------

Tabbed By : Anavrin Seixip

PART 1
G|-------------------------------------|
D|-------------------------------------|
A|-5-5-5-5--7-7-7-7--8-8-8-8--8-8-8-8--|
E|-------------------------------------|

PART 2
G|------------------------------------------------------------------|
D|------------------------------------------------------------------|
A|-3-3-3-3-3-3-3-3-5-5-5-5-5-5-5-5-3-3-3-3-3-3-3-3-5-5-5-5-5-5-5-5--|
E|------------------------------------------------------------------|

G|---------------------------------|
D|---------------------------------|
A|-1-1-1-1--1-1-1-1--1-1-1-1--3-3--|
E|---------------------------------|
[ Tab from: http://www.guitartabs.cc/tabs/r/ramones/pet_sematary_btab.html ]
PART 3
G|-------------------------------------------------------------|
D|-------------------------------------------------------------|
A|-5-5-5-5-5--8-8-8-8-8--3-3-3-3-3--13-13-13-13-13--5-5-5-5-5--|
E|-------------------------------------------------------------|

G|----------------------------------|
D|----------------------------------|
A|-3-3-3-3-3--1-1-1-1-1--3-3-3-3-3--|
E|----------------------------------|

PART 4
G|-------------------------------------------------------------|
D|-------------------------------------------------------------|
A|-0--1-1--0--1-1-1-1-1--0--1-1--3-3-3-3-3-3-3--3-3-3-3-3-3-3--|
E|-------------------------------------------------------------|

PART 5
G|-------------------------------------------------------------|
D|-------------------------------------------------------------|
A|-5-5-5-5-5-5-5--3-3-3-3-3-3-3--1-1-1-1-1-1-1--3-3-3-3-3-3-3--|
E|-------------------------------------------------------------|

song order:
part 1 - x6
part 2
part 3 - x2
part 1 - x4
part 2
part 3 - x2
part 4
part 1 - x4
part 2
part 3 - x2
part 5 - rep til fade
Comments