Ramones - Palisades Park Chords & Tabs

 

Palisades Park Chords & Tabs

Ramones Chords & Tabs

Version: 1 Type: Tab 1 rating
1 star 2 stars 3 stars 4 stars 5 stars
comments

Palisades Park Tab

   
Palisades park COMPLETE

I'm not really sure at this part, but I think it's correct.
e|----------------------------------------------------|
H|----------------------------------------------------|
G|12-11-10-9-8----------------10-9-8------------------|
D|-------------12-10-11-10-11--------12-11-10-8-9-8-9-|
A|----------------------------------------------------|
E|----------------------------------------------------|
Or you can play it with chords, like this:
e|----------------------------------------------------------------|
H|----------------------------------------------------------------|
G|----------------------------------------------------------------|
D|5-5-5-5-5-5-5-5-2-2-2-2-2-2-2-2-5-5-5-5-5-5-5-5-2-2-2-2-2-2-2-2-|
A|5-5-5-5-5-5-5-5-2-2-2-2-2-2-2-2-5-5-5-5-5-5-5-5-2-2-2-2-2-2-2-2-|
E|3-3-3-3-3-3-3-3-0-0-0-0-0-0-0-0-3-3-3-3-3-3-3-3-0-0-0-0-0-0-0-0-|

e|----------------------------------------------------------------| X=2
H|----------------------------------------------------------------|
G|--------------------------------5-5-5-5-5-5-5-5-7-7-7-7-7-7-7-7-|
D|5-5-5-5-5-5-5-5-2-2-2-2-2-2-2-2-5-5-5-5-5-5-5-5-7-7-7-7-7-7-7-7-|
A|5-5-5-5-5-5-5-5-2-2-2-2-2-2-2-2-3-3-3-3-3-3-3-3-5-5-5-5-5-5-5-5-|
E|3-3-3-3-3-3-3-3-0-0-0-0-0-0-0-0---------------------------------|

e|----------------------------------------------------------------|
H|----------------------------------------------------------------|
G|5-5-5-5-5-5-5-5-9-9-9-9-9-9-9-9-5-5-5-5-5-5-5-5-7-7-7-7-7-7-7-7-|
D|5-5-5-5-5-5-5-5-9-9-9-9-9-9-9-9-5-5-5-5-5-5-5-5-7-7-7-7-7-7-7-7-|
A|3-3-3-3-3-3-3-3-7-7-7-7-7-7-7-7-3-3-3-3-3-3-3-3-5-5-5-5-5-5-5-5-|
E|----------------------------------------------------------------|

e|----------------------------------------------------------------|
H|----------------------------------------------------------------|
G|--------------------------------5-5-5-5-5-5-5-5-7-7-7-7-7-7-7-7-|
D|5-5-5-5-5-5-5-5-2-2-2-2-2-2-2-2-5-5-5-5-5-5-5-5-7-7-7-7-7-7-7-7-|
A|5-5-5-5-5-5-5-5-2-2-2-2-2-2-2-2-3-3-3-3-3-3-3-3-5-5-5-5-5-5-5-5-|
E|3-3-3-3-3-3-3-3-0-0-0-0-0-0-0-0---------------------------------|
[ Tab from: http://www.guitartabs.cc/tabs/r/ramones/palisades_park_tab.html ]
e|---------------------------------------------|
H|---------------------------------------------|
G|5-5-5-5-5-5-5-5-9-9-9-9-9-9-9-9-5-5-5-5-7----|
D|5-5-5-5-5-5-5-5-9-9-9-9-9-9-9-9-5-5-5-5-7----|
A|3-3-3-3-3-3-3-3-7-7-7-7-7-7-7-7-3-3-3-3-5----|
E|---------------------------------------------|

e|----------------------------------------------------|x=2
H|----------------------------------------------------|
G|12-11-10-9-8----------------10-9-8------------------|
D|-------------12-10-11-10-11--------12-11-10-8-9-8-9-|
A|----------------------------------------------------|
E|----------------------------------------------------|

e|-----------------|
H|-----------------|
G|5---7---12-------|
D|5---7---12-------|
A|3---5---10-------|
E|-----------------|

e|----------------------------------------------------------------| X=2
H|----------------------------------------------------------------|
G|--------------------------------5-5-5-5-5-5-5-5-7-7-7-7-7-7-7-7-|
D|5-5-5-5-5-5-5-5-2-2-2-2-2-2-2-2-5-5-5-5-5-5-5-5-7-7-7-7-7-7-7-7-|
A|5-5-5-5-5-5-5-5-2-2-2-2-2-2-2-2-3-3-3-3-3-3-3-3-5-5-5-5-5-5-5-5-|
E|3-3-3-3-3-3-3-3-0-0-0-0-0-0-0-0---------------------------------|

e|----------------------------------------------------------------|
H|----------------------------------------------------------------|
G|5-5-5-5-5-5-5-5-9-9-9-9-9-9-9-9-5-5-5-5-5-5-5-5-7-7-7-7-7-7-7-7-|
D|5-5-5-5-5-5-5-5-9-9-9-9-9-9-9-9-5-5-5-5-5-5-5-5-7-7-7-7-7-7-7-7-|
A|3-3-3-3-3-3-3-3-7-7-7-7-7-7-7-7-3-3-3-3-3-3-3-3-5-5-5-5-5-5-5-5-|
E|----------------------------------------------------------------|

e|----------------------------------------------------------------|
H|----------------------------------------------------------------|
G|--------------------------------5-5-5-5-5-5-5-5-7-7-7-7-7-7-7-7-|
D|5-5-5-5-5-5-5-5-2-2-2-2-2-2-2-2-5-5-5-5-5-5-5-5-7-7-7-7-7-7-7-7-|
A|5-5-5-5-5-5-5-5-2-2-2-2-2-2-2-2-3-3-3-3-3-3-3-3-5-5-5-5-5-5-5-5-|
E|3-3-3-3-3-3-3-3-0-0-0-0-0-0-0-0---------------------------------|

e|---------------------------------------------|
H|---------------------------------------------|
G|5-5-5-5-5-5-5-5-9-9-9-9-9-9-9-9-5-5-5-5-7----|
D|5-5-5-5-5-5-5-5-9-9-9-9-9-9-9-9-5-5-5-5-7----|
A|3-3-3-3-3-3-3-3-7-7-7-7-7-7-7-7-3-3-3-3-5----|
E|---------------------------------------------|

e|----------------------------------------------------|FADE OUT...
H|----------------------------------------------------|
G|12-11-10-9-8----------------10-9-8------------------|
D|-------------12-10-11-10-11--------12-11-10-8-9-8-9-|
A|----------------------------------------------------|
E|----------------------------------------------------|

Good Luck!
Comments