Ramones - Outsider Chords & Tabs

 

Outsider Chords & Tabs

Ramones Chords & Tabs

Version: 2 Type: Tab 0 ratings
1 star 2 stars 3 stars 4 stars 5 stars
comments

Outsider Tab

Tablatura de NICO M. (nicokbbl@hotmail.com)

Artista: Ramones
Cancion: Outsider
Album: Subterranean Jungle (1983)


1|-------------------------------------------|
2|-------------------------------------------|
3|-------------------------------------------|
4|----7-7-7-7-7-7-7-7-7---5-5-5-5-5-5-5-5-5--|
5|----7-7-7-7-7-7-7-7-7---5-5-5-5-5-5-5-5-5--|
6|----5-5-5-5-5-5-5-5-5---3-3-3-3-3-3-3-3-3--|

  Oh I'm an outsider outside of everything
  Oh I'm an outsider outside of everything
  Oh I'm an outsider outside of everything
  everything you know
  everything you know
  it disturbs me so

1|---------------------------------------------------|
2|---------------------------------------------------|
3|---------------------------------------------------|
4|----7-7-7-7-7-7-7-7-7---5-5-5-5-5-5-5-5-5----------|
5|----7-7-7-7-7-7-7-7-7---5-5-5-5-5-5-5-5-5----------|
6|----5-5-5-5-5-5-5-5-5---3-3-3-3-3-3-3-3-3-3-5-7-5--|
[ Tab from: http://www.guitartabs.cc/tabs/r/ramones/outsider_tab_ver_2.html ]
  Oh I'm an outsider outside of everything 
  Oh I'm an outsider outside of everything
  Oh I'm an outsider outside of everything
  Everything you know
  Everything you know
  It disturbs me so

1|-------------------------------------------|
2|-------------------------------------------|
3|-------------------------------------------|
4|----5-5-5-5-5-5-5-5-5---7-7-7-7-7-7-7-7-7--|
5|----5-5-5-5-5-5-5-5-5---7-7-7-7-7-7-7-7-7--|
6|----3-3-3-3-3-3-3-3-3---5-5-5-5-5-5-5-5-5--|


  Everybody's gotta push me
  Push me around
  Everybody tryed to put me
  Tryed to put me down


1|-----------------------------------------|
2|-----------------------------------------|
3|----6-6-6-6-6----------------------------|
4|----6-6-6-6-6-6-6-6-6-6-4-4-4-4-4-4-4-4--|
5|----4-4-4-4-4-6-6-6-6-6-4-4-4-4-4-4-4-4--|
6|--------------4-4-4-4-4-2-2-2-2-2-2-2-2--|

  Everybody try to push me
  Push me around
  Everybody try to put me
  Try to put me down

  Oh I'm an outsider outside of everything
  Oh I'm an outsider outside of everything
  Oh I'm an outsider outside of everything
  Everything you know
  Everything you know
  It disturbs me so
Comments