Ramones - Oh Oh I Love Her So Chords & Tabs

 

Oh Oh I Love Her So Chords & Tabs

Ramones Chords & Tabs

Version: 3 Type: Tab

Oh Oh I Love Her So Tab

   
----------------------------------------------------------------------------
		     Oh Oh I Love Her So – The Ramones
----------------------------------------------------------------------------
Tabbed by: Ramones Nutter
Email: zogman1@hotmail.com

Tuning: Standard (EADGBe)


INTRO
e|-------------------------------------------------------------------------|
B|-------------------------------------------------------------------------|
G|-------------------------------------------------------------------------|
D|--7-7-7-7-7-7-7-7--4-4-4-4-4-4-4-4--7-7-7-7-7-7-7-7--4-4-4-4-4-4-4-4-----|
A|--7-7-7-7-7-7-7-7--4-4-4-4-4-4-4-4--7-7-7-7-7-7-7-7--4-4-4-4-4-4-4-4-----|
E|--5-5-5-5-5-5-5-5--2-2-2-2-2-2-2-2--5-5-5-5-5-5-5-5--2-2-2-2-2-2-2-2-----|


VERSE
      “I met her at the burger King,    fell in love by a soda machine,
e|-------------------------------------------------------------------------|
B|-------------------------------------------------------------------------|
G|-------------------------------------------------------------------------|
D|--7-7-7-7-7-7-7-7--4-4-4-4-4-4-4-4--7-7-7-7-7-7-7-7--4-4-4-4-4-4-4-4-----|
A|--7-7-7-7-7-7-7-7--4-4-4-4-4-4-4-4--7-7-7-7-7-7-7-7--4-4-4-4-4-4-4-4-----|
E|--5-5-5-5-5-5-5-5--2-2-2-2-2-2-2-2--5-5-5-5-5-5-5-5--2-2-2-2-2-2-2-2-----|

       So we took the car downtown,   kids were hangin’ out all around.”
e|-------------------------------------------------------------------------|
B|-------------------------------------------------------------------------|
G|--7-7-7-7-7-7-7-7--9-9-9-9-9-9-9-9--7-7-7-7-7-7-7-7--9-9-9-9-9-9-9-9-----|
D|--7-7-7-7-7-7-7-7--9-9-9-9-9-9-9-9--7-7-7-7-7-7-7-7--9-9-9-9-9-9-9-9-----|
A|--5-5-5-5-5-5-5-5--7-7-7-7-7-7-7-7--5-5-5-5-5-5-5-5--7-7-7-7-7-7-7-7-----|
E|-------------------------------------------------------------------------|
 
     “Then we went down to Coney Island, on the coaster and round again,
e|-------------------------------------------------------------------------|
B|-------------------------------------------------------------------------|
G|-------------------------------------------------------------------------|
D|--7-7-7-7-7-7-7-7--4-4-4-4-4-4-4-4--7-7-7-7-7-7-7-7--4-4-4-4-4-4-4-4-----|
A|--7-7-7-7-7-7-7-7--4-4-4-4-4-4-4-4--7-7-7-7-7-7-7-7--4-4-4-4-4-4-4-4-----|
E|--5-5-5-5-5-5-5-5--2-2-2-2-2-2-2-2--5-5-5-5-5-5-5-5--2-2-2-2-2-2-2-2-----|

       And nothin’s gonna ever tear us apart, coz she’s my sweetheart,
e|-------------------------------------------------------------------------|
B|-------------------------------------------------------------------------|
G|--7-7-7-7-7-7-7-7--9-9-9-9-9-9-9-9--7-7-7-7-7-7-7-7--9-9-9-9-9-9-9-9-----|
D|--7-7-7-7-7-7-7-7--9-9-9-9-9-9-9-9--7-7-7-7-7-7-7-7--9-9-9-9-9-9-9-9-----|
A|--5-5-5-5-5-5-5-5--7-7-7-7-7-7-7-7--5-5-5-5-5-5-5-5--7-7-7-7-7-7-7-7-----|
E|-------------------------------------------------------------------------|

    All right!       Oh yeah!”
e|------------------------------------|
B|------------------------------------|
G|------------------------------------|
D|--4-4-4-4-4-4-4-4--2-2-2-2-2-2-2-2--|
A|--4-4-4-4-4-4-4-4--2-2-2-2-2-2-2-2--|
E|--2-2-2-2-2-2-2-2--0-0-0-0-0-0-0-0--|


CHORUS
       “Oh! Oh!      I love her so,         Oh! Oh!      I love her so,
e|------------------------------------------------------------------------|
B|------------------------------------------------------------------------|
G|-------------------7-7-7-7--9-9-9-9--------------------7-7-7-7--9-9-9-9-|
D|--7-7-7-7-7-7-7-7--7-7-7-7--9-9-9-9---7-7-7-7-7-7-7-7--7-7-7-7--9-9-9-9-|
A|--7-7-7-7-7-7-7-7--5-5-5-5--7-7-7-7---7-7-7-7-7-7-7-7--5-5-5-5--7-7-7-7-|
E|--5-5-5-5-5-5-5-5---------------------5-5-5-5-5-5-5-5-------------------|
[ Tab from: http://www.guitartabs.cc/tabs/r/ramones/oh_oh_i_love_her_so_tab_ver_3.html ]
       “Oh! Oh!      I love her so-oh,     
e|-------------------------------------|
B|-------------------------------------|
G|-------------------7-7-7-7--9-9-9-9--|
D|--7-7-7-7-7-7-7-7--7-7-7-7--9-9-9-9--|
A|--7-7-7-7-7-7-7-7--5-5-5-5--7-7-7-7--|
E|--5-5-5-5-5-5-5-5--------------------|

    Oh!”
e|-------------------------------------|
B|-------------------------------------|
G|-------------------7-7-7-7-----------|
D|--7-7-7-7-7-7-7-7--7-7-7-7--7-7-7-7--|
A|--7-7-7-7-7-7-7-7--5-5-5-5--7-7-7-7--|
E|--5-5-5-5-5-5-5-5-----------5-5-5-5--|

       “Oh! Oh!      I love her so,         Oh! Oh!      I love her so,
e|------------------------------------------------------------------------|
B|------------------------------------------------------------------------|
G|-------------------7-7-7-7--9-9-9-9--------------------7-7-7-7--9-9-9-9-|
D|--7-7-7-7-7-7-7-7--7-7-7-7--9-9-9-9---7-7-7-7-7-7-7-7--7-7-7-7--9-9-9-9-|
A|--7-7-7-7-7-7-7-7--5-5-5-5--7-7-7-7---7-7-7-7-7-7-7-7--5-5-5-5--7-7-7-7-|
E|--5-5-5-5-5-5-5-5---------------------5-5-5-5-5-5-5-5-------------------|

       “Oh! Oh!      I love her so-oh,     
e|-------------------------------------|
B|-------------------------------------|
G|-------------------7-7-7-7--9-9-9-9--|
D|--7-7-7-7-7-7-7-7--7-7-7-7--9-9-9-9--|
A|--7-7-7-7-7-7-7-7--5-5-5-5--7-7-7-7--|
E|--5-5-5-5-5-5-5-5--------------------|

    Oh!”
e|-------------------------------------|
B|-------------------------------------|
G|-----------7-7-7-7-------------------|
D|--7-7-7-7--7-7-7-7--7-7-7-7-7-7-7-7--|
A|--7-7-7-7--5-5-5-5--7-7-7-7-7-7-7-7--|
E|--5-5-5-5-----------5-5-5-5-5-5-5-5--|

BRIDGE
  “Hangin’ out on a night like this, gonna give her a great big kiss,
e|-------------------------------------------------------------------------|
B|-------------------------------------------------------------------------|
G|--7-7-7-7-7-7-7-7-7-7-7-7-7-7-7-7----------------------------------------|
D|--7-7-7-7-7-7-7-7-7-7-7-7-7-7-7-7--7-7-7-7-7-7-7-7-7-7-7-7-7-7-7-7-------|
A|--5-5-5-5-5-5-5-5-5-5-5-5-5-5-5-5--7-7-7-7-7-7-7-7-7-7-7-7-7-7-7-7-------|
E|-----------------------------------5-5-5-5-5-5-5-5-5-5-5-5-5-5-5-5-------|

      I’m gonna make her mine,  and everything’s gonna be real fine!”
e|-------------------------------------------------------------------------|
B|-------------------------------------------------------------------------|
G|--7-7-7-7-7-7-7-7-7-7-7-7-7-7-7-7--9-9-9-9-9-9-9-9-9-9-9-9-9-9-9-9-------|
D|--7-7-7-7-7-7-7-7-7-7-7-7-7-7-7-7--9-9-9-9-9-9-9-9-9-9-9-9-9-9-9-9-------|
A|--5-5-5-5-5-5-5-5-5-5-5-5-5-5-5-5--7-7-7-7-7-7-7-7-7-7-7-7-7-7-7-7-------|
E|-------------------------------------------------------------------------|

(REPEAT VERSE AND CHORUS)

OUTRO

       “Oh! Oh!      I love her so,         Oh! Oh!      I love her so,
e|------------------------------------------------------------------------|
B|------------------------------------------------------------------------|
G|-------------------7-7-7-7--9-9-9-9--------------------7-7-7-7--9-9-9-9-|
D|--7-7-7-7-7-7-7-7--7-7-7-7--9-9-9-9---7-7-7-7-7-7-7-7--7-7-7-7--9-9-9-9-|
A|--7-7-7-7-7-7-7-7--5-5-5-5--7-7-7-7---7-7-7-7-7-7-7-7--5-5-5-5--7-7-7-7-|
E|--5-5-5-5-5-5-5-5---------------------5-5-5-5-5-5-5-5-------------------|

       “Oh! Oh!      I love her so-oh,     
e|-------------------------------------|
B|-------------------------------------|
G|-------------------7-7-7-7--9-9-9-9--|
D|--7-7-7-7-7-7-7-7--7-7-7-7--9-9-9-9--|
A|--7-7-7-7-7-7-7-7--5-5-5-5--7-7-7-7--|
E|--5-5-5-5-5-5-5-5--------------------|

    Oh!”
e|--------------------------------------------------2-(let ring)|
B|-------------------------------------------------3------------|
G|-----------7-7-7-7------------------------------2-------------|
D|--7-7-7-7--7-7-7-7—-7x-------------------------0--------------|
A|--7-7-7-7--5-5-5-5—-7x------------------------0---------------|
E|--5-5-5-5-----------5x-----------------------0----------------|

| /  slide up
| \  slide down
| h  hammer-on
| p  pull-off
| ~  vibrato
| +  harmonic
| x  Mute note
===========================================================================

Any questions, corrections, suggestions, etc, just email me (address is at the top).