Ramones - Oh Oh I Love Her So Chords & Tabs

 

Oh Oh I Love Her So Chords & Tabs

Ramones Chords & Tabs

Version: 1 Type: Tab 1 rating
1 star 2 stars 3 stars 4 stars 5 stars
comments

Oh Oh I Love Her So Tab

   
e|--------------------------------|
B|--------------------------------|
G|--------------------------------|
D|7-7777774-4444447-7777774-444444|
A|7-7777774-4444447-7777774-444444|
E|5-5555552-2222225-5555552-222222|

e|----------------------------------------------------------------|
B|----------------------------------------------------------------|
G|--------------------------------7-7777779-9999997-7777779-999999|
D|7-7777774-4444447-7777774-4444447-7777779-9999997-7777779-999999|
A|7-7777774-4444447-7777774-4444445-5555557-7777775-5555557-777777|
E|5-5555552-2222225-5555552-222222--------------------------------|2times
[ Tab from: http://www.guitartabs.cc/tabs/r/ramones/oh_oh_i_love_her_so_tab.html ]
e|----------------|------------------------------------------------|----------------|----------------|
B|----------------|------------------------------------------------|----------------|----------------|
G|--------9-999999|--------7-779-99--------7-779-99--------7-779-99|--------7-779-99|----7-77--------|
S|4-4444449-999999|7-7777777-779-997-7777777-779-997-7777777-779-99|7-7777777-779-99|7-777-777-777777|
A|4-4444447-777777|7-7777775-557-777-7777775-557-777-7777775-557-77|7-7777775-557-77|7-775-557-777777|
E|2-222222--------|5-555555--------5-555555--------5-555555--------|5-555555--------|5-55----5-555555|2TIMES
  FIRST TIME....                                                    FIRST TIME...    SECOND TIME...
e|----------------------------------------|
B|----------------------------------------|
G|7-777777--------7-7777779-99999999999999|
D|7-7777777-7777777-7777779-99999999999999|
A|5-5555557-7777775-5555557-77777777777777|
E|--------5-555555------------------------|

e|----------------------------------------------------------------|
B|----------------------------------------------------------------|
G|--------------------------------7-7777779-9999997-7777779-999999|
D|7-7777774-4444447-7777774-4444447-7777779-9999997-7777779-999999|
A|7-7777774-4444447-7777774-4444445-5555557-7777775-5555557-777777|
E|5-5555552-2222225-5555552-222222--------------------------------|2times

e|----------------|------------------------------------------------|----------------|----------------|
B|----------------|------------------------------------------------|----------------|----------------|
G|--------9-999999|--------7-779-99--------7-779-99--------7-779-99|--------7-779-99|----7-77--------|
S|4-4444449-999999|7-7777777-779-997-7777777-779-997-7777777-779-99|7-7777777-779-99|7-777-777-777777|
A|4-4444447-777777|7-7777775-557-777-7777775-557-777-7777775-557-77|7-7777775-557-77|7-775-557-777777|
E|2-222222--------|5-555555--------5-555555--------5-555555--------|5-555555--------|5-55----5-555555|2TIMES
  FIRST TIME....                                                    FIRST TIME...    SECOND TIME...

e|------------------------------------------------------------------------5~~~~|
B|-----------------------------------------------------------------------6~~~~~|
G|--------7-779-99--------7-779-99--------7-779-99----9-99-14-----------5~~~~~~|
D|7-7777777-779-997-7777777-779-997-7777777-779-997-779-99-14----------7~~~~~~~|
A|7-7777775-557-777-7777775-557-777-7777775-557-777-777-77-12---------7~~~~~~~~|
E|5-555555--------5-555555--------5-555555--------5-55---------------5~~~~~~~~~|
Comments