Ramones - Now I Wanna Sniff Some Glue Chords & Tabs

 

Now I Wanna Sniff Some Glue Chords & Tabs

Ramones Chords & Tabs

Version: 3 Type: Bass Tab 0 ratings
1 star 2 stars 3 stars 4 stars 5 stars
comments

Now I Wanna Sniff Some Glue Bass Tab

   
Standard tuning (E,A,D,G)
~= LET NOTE RING
SONG PLAYED FAST

G------------------|
D------------------|
A------------------|
E-555555-333333----|  x4


G-----------------------------------|
D-----------------------------------|
A-----------------------------------|
E-5~---------3~--------1~--------0--| x1
[ Tab from: http://www.guitartabs.cc/tabs/r/ramones/now_i_wanna_sniff_some_glue_btab_ver_3.html ]
 dee dee says 1 2 3 4!---------------|no bass here-then....
G------------------------------------|
D------------------------------------|
A------------------------------------|
E-5~---------3~--------1~--------0~--| x1

 SOLO
G---------------------------------|
D---------------------------------|
A--------------5-7-------------7--|
E-77777-5-77777---77777-5-77777---| x1

G---------------------------------------|
D---------------------------------------|
A---------------------------------------|
E-5~---------3~---------1~-------000000-|

G--------------|
D--------------|
A--------------|
E-555555-333333 x8

END
G----------------------------------|
D----------------------------------|
A----------------------------------|
E-5555555-3333333-1111111-0000000--| x4
Comments