Ramones - My Brain Is Hanging Upside Down Chords & Tabs

 

My Brain Is Hanging Upside Down Chords & Tabs

Ramones Chords & Tabs

Version: 2 Type: Chords 0 ratings
1 star 2 stars 3 stars 4 stars 5 stars
comments

My Brain Is Hanging Upside Down Chords

   
RAMONES - My brain is hanging upside down

    F   c   G5  A   D

|---1---0---3---0---2---| e
|---1---1---3---2---3---| B
|---2---0---0---2---2---| G
|---3---2---0---2---0---| D
|---3---3---x---0---x---| A
|---1---x---3---x---x---| E


Gtr1: Strum along chords, overdrive tune


----------------------------------------------------------------------------
INTRO

G5

F c G5


----------------------------------------------------------------------------
VERSE


F                                 c
You've got to pick up the pieces. C'mon sort Your trash ...and
G5
Better pull yourself back together. Maybe You've got too much cash, baby
F                          c
Better call, call the law. When You gonna turn Yourself in? Yeah
G5
You're a politician. Don't become one of Hitlers children
----------------------------------------------------------------------------
BRIDGE


A                               G5                F
Bonzo goes to Bitburg then goes out for a cup of tea
A                         G5                     F
As i watched it on TV somehow it really bothered me
A                                      G5                   F
Drank in all the bars in town for understanding foreign policy
F
Pick up the pieces

-----------------------------------------------------------------------------
CHORUS
[ Tab from: http://www.guitartabs.cc/tabs/r/ramones/my_brain_is_hanging_upside_down_crd_ver_2.html ]
c                   G5               F 
AH.....na-na-na. My brain is hanging upside down
c                G5                  F
Ah.....na-na-na. I need something to slow me down
c                   G5               F
Ah.....na-na-na. My brain is hanging upside down
c                G5      
Ah.....na-na-na. I need something to slow me down
-----------------------------------------------------------------------------
VERSE 2

F                             c                  
Shoulda wished her happiness, wished her the very best ...and
G5
A fifty thousand dollar dress. Shaking hands with Your higness.
F                                c
See through You like cellophane. You watch the world complain ...but
G5
You do it anyway. Who am I, am I to say?
-----------------------------------------------------------------------------
BRIDGE
-----------------------------------------------------------------------------
CHORUS
-----------------------------------------------------------------------------
SOLO (couldn't figure out second guitar in solo. Please eMail it to me: eldoggo@gmx.de)

4x [D A G5] strummed by first guitar
-----------------------------------------------------------------------------
VERSE 3

D
If there's one thing that makes me sick
          A                            G5
It's when someone tries to hide behind politics
D
I'd wish that time could go by fast ...but
A                      G5
Somehow they manage to make it last

-----------------------------------------------------------------------------
Chrous 2 (2x and fade out)

D                   A                G5
Ah.....na-na-na. My brain is hanging upside down
D                A                 G5
Ah.....na-na-na. I need someone to slow me down
D                   A                G5
Ah.....na-na-na. My brain is hanging upside down
D                A                 G5
Ah.....na-na-na. I need someone to slow me down
Comments