Ramones - My Brain Is Hanging Upside Down Chords & Tabs

 

My Brain Is Hanging Upside Down Chords & Tabs

Ramones Chords & Tabs

Version: 1 Type: Chords 0 ratings
1 star 2 stars 3 stars 4 stars 5 stars
comments

My Brain Is Hanging Upside Down Chords

                   My Brain Is Hanging Upside Down - Ramones

Standard Tuning (eBGDAE)
Tabbed By: UseurIllusion46
Intro

e|-----------|
B|-----------|
G|-----------|
D|----5------|
A|----5------|
E|----3------|Repeat A Lot
Then..
[ Tab from: http://www.guitartabs.cc/tabs/r/ramones/my_brain_is_hanging_upside_down_crd.html ]
Verse
e|--------------|
B|--------------|
G|-----5--------|
D|--3--5--5--5--|
A|--3--3--5--5--|
E|--1-----3--3--|

Chorus
e|------------|-------|
B|------------|-------|
G|------------|-------|
D|--7\--5\--3-|---3---|
A|--7\--5\--3-|---3---|
E|--5\--3\--1-|---1---|

Na Na Na Na...
e|------------|
B|------------|
G|--5---------|
D|--5-5-3-----|
A|--3-5-3-----|
E|----3-1-----|
(Fade Out)
Comments