Ramones - I Want You Around Chords & Tabs

 

I Want You Around Chords & Tabs

Ramones Chords & Tabs

Version: 1 Type: Tab 0 ratings
1 star 2 stars 3 stars 4 stars 5 stars
comments

I Want You Around Tab

 Artist:Ramones
 Song: I Want You Around
 Album: Rock 'n' Roll High School (Soundtrack)
 Tabbed By: ASSMAN34126 
 Email: newfound32@yahoo.com
 Moderately = 124

 (intro and verse)acoustic
e|-2---2-2-2-2-2-2-2----3-----------------|
B|-3---3-3-3-3-3-3-3----0--0-0-0-0-0-0-0--|
G|-2---2-2-2-2-2-2-2-0--0--0-0-0-0-0-0-0--|
D|-0---0-0-0-0-0-0-0-0--0--0-0-0-0-0-0-0--|
A|----------------------2--2-2-2-2-2-2-2--|
E|----------------------3--3-3-3-3-3-3-3--|

(chorus)
    They're         tell - in us.......
e|------------------2--2-2-2-2-2-2-2-----|
B|-2--2-2-2-2-2-2-2-3--3-3-3-3-3-3-3-----|
G|-2--2-2-2-2-2-2-2-2--2-2-2-2-2-2-2-----|
D|-2--2-2-2-2-2-2-2-0--0-0-0-0-0-0-0-----|
A|-0--0-0-0-0-0-0-0----------------------|
E|---------------------------------------|

   (2nd chorus)
  I know what you're thinkin..........
e|------------------2--2-2-2-2-2-2-2--2--2-2-2-2-2-2-2--------------------|
B|-2--2-2-2-2-2-2-2-3--3-3-3-3-3-3-3--3--3-3-3-3-3-3-3-0--0-0-0-0-0-0-0---|
G|-2--2-2-2-2-2-2-2-2--2-2-2-2-2-2-2--2--2-2-2-2-2-2-2-0--0-0-0-0-0-0-0---|
D|-2--2-2-2-2-2-2-2-0--0-0-0-0-0-0-0--0--0-0-0-0-0-0-0-0--0-0-0-0-0-0-0---|
A|-0--0-0-0-0-0-0-0------------------------------------2--2-2-2-2-2-2-2---|
E|-----------------------------------------------------3--3-3-3-3-3-3-3---|

e|-0--0-0-0-0-0-0-0--0--0-0-0-0-0-0-0--|
B|-0--0-0-0-0-0-0-0--0--0-0-0-0-0-0-0--|
G|-1--1-1-1-1-1-1-1--1--1-1-1-1-1-1-1--|
D|-2--2-2-2-2-2-2-2--2--2-2-2-2-2-2-2--|
A|-2--2-2-2-2-2-2-2--2--2-2-2-2-2-2-2--|
E|-0--0-0-0-0-0-0-0--0--0-0-0-0-0-0-0--|

  (Bridge)
      you know  if  it comes true.....
e|------------------0--0-0-0-0-0-0-0-0--|
B|-3--3-3-3-3-3-3-3-0--0-0-0-0-0-0-0-0--|
G|-4--4-4-4-4-4-4-4-0--0-0-0-0-0-0-0-0--|
D|-4--4-4-4-4-4-4-4-2--2-2-2-2-2-2-2-2--|
A|-2--2-2-2-2-2-2-2-2--2-2-2-2-2-2-2-2--|
E|------------------0--0-0-0-0-0-0-0-0--| (x2)
[ Tab from: http://www.guitartabs.cc/tabs/r/ramones/i_want_you_around_tab.html ]
      I'll never     treat you cruel as
e|-------------------------------------|
B|-5--5-5-5-5-5-5-5--5--5-5-5-5-5-5-5--|
G|-5--5-5-5-5-5-5-5--5--5-5-5-5-5-5-5--|
D|-5--5-5-5-5-5-5-5--5--5-5-5-5-5-5-5--|
A|-3--3-3-3-3-3-3-3--3--3-3-3-3-3-3-3--|
E|-------------------------------------|

   long as I've got you a round.......(to 3rd verse)
e|------------------------------------------|
B|--5---5--5----5---5---5-7--7-7-7-7-7-7-7--|
G|--5---5--5----5---5---5-7--7-7-7-7-7-7-7--|
D|--5---5--5----5---5---5-7--7-7-7-7-7-7-7--|
A|--3---3--3----3---3---3-5--5-5-5-5-5-5-5--|
E|------------------------------------------|

   I    want you around
e|-2--2-2----------------------------|
B|-3--3-3-0-0-0-0--2--2-2-2-2-2-2-2--|
G|-2--2-2-0-0-0-0--2--2-2-2-2-2-2-2--|
D|-0--0-0-0-0-0-0--2--2-2-2-2-2-2-2--|
A|--------2-2-2-2--0--0-0-0-0-0-0-0--|
E|--------3-3-3-3--------------------| (x2)

Solo 
e|-------------2-232--------------2-2-3-232--------0-0-2--2---2-23-2---2--3|
B|----2--2----3---------2----5---3----------3----2-------3-3-3-------------|
G|---2--2-2--2--------------0-0-2-----------------2-2---2---2--------------|
D|--2-------0------------2-4-----------------0--2--------------------------|
A|-0-----------------0-------------------------0---------------------------|
E|-------------------------------------------------------------------------|
                                   harm
e|-3--3-----------------------------12--|
B|-0----0-------9-7-7-7-7-7-9-----------|
G|-0------------9-7-7-7-7-7-9-----------|
D|--------------------------------------|
A|--------------------------------------|
E|-----------0------------------0-------|

   I    want you around
e|-2--2-2----------------------------|
B|-3--3-3-0-0-0-0--2--2-2-2-2-2-2-2--|
G|-2--2-2-0-0-0-0--2--2-2-2-2-2-2-2--|
D|-0--0-0-0-0-0-0--2--2-2-2-2-2-2-2--|
A|--------2-2-2-2--0--0-0-0-0-0-0-0--|
E|--------3-3-3-3--------------------| (x2)

  end
e|-2--|
B|-3--|
G|-2--|
D|-0--|
A|----|
E|----|
Comments